  0
SECTION
  2
HEADER
  9
$ACADVER
  1
AC1009
  9
$INSBASE
 10
0.0
 20
0.0
 30
0.0
  9
$EXTMIN
 10
6922.0354403574829
 20
-12287.282988349511
 30
0.0
  9
$EXTMAX
 10
11844.153568798311
 20
1561.5040709943751
 30
216.23953494132661
  9
$LIMMIN
 10
0.0
 20
0.0
  9
$LIMMAX
 10
53600.0
 20
41400.0
  9
$ORTHOMODE
 70
     0
  9
$REGENMODE
 70
     1
  9
$FILLMODE
 70
     1
  9
$QTEXTMODE
 70
     0
  9
$MIRRTEXT
 70
     0
  9
$DRAGMODE
 70
     2
  9
$LTSCALE
 40
100.0
  9
$OSMODE
 70
    39
  9
$ATTMODE
 70
     1
  9
$TEXTSIZE
 40
606.95912056173256
  9
$TRACEWID
 40
0.5
  9
$TEXTSTYLE
  7
ARCH-DIM
  9
$CLAYER
  8
0
  9
$CELTYPE
  6
BYLAYER
  9
$CECOLOR
 62
   256
  9
$DIMSCALE
 40
2.0
  9
$DIMASZ
 40
1.5
  9
$DIMEXO
 40
0.625
  9
$DIMDLI
 40
0.0
  9
$DIMRND
 40
0.0
  9
$DIMDLE
 40
0.0
  9
$DIMEXE
 40
1.25
  9
$DIMTP
 40
0.0
  9
$DIMTM
 40
0.0
  9
$DIMTXT
 40
2.0
  9
$DIMCEN
 40
1.5
  9
$DIMTSZ
 40
0.0
  9
$DIMTOL
 70
     0
  9
$DIMLIM
 70
     0
  9
$DIMTIH
 70
     0
  9
$DIMTOH
 70
     0
  9
$DIMSE1
 70
     1
  9
$DIMSE2
 70
     1
  9
$DIMTAD
 70
     0
  9
$DIMZIN
 70
     0
  9
$DIMBLK
  1

  9
$DIMASO
 70
     1
  9
$DIMSHO
 70
     1
  9
$DIMPOST
  1

  9
$DIMAPOST
  1

  9
$DIMALT
 70
     0
  9
$DIMALTD
 70
     4
  9
$DIMALTF
 40
0.0394
  9
$DIMLFAC
 40
1.0
  9
$DIMTOFL
 70
     0
  9
$DIMTVP
 40
0.0
  9
$DIMTIX
 70
     0
  9
$DIMSOXD
 70
     0
  9
$DIMSAH
 70
     1
  9
$DIMBLK1
  1
BTSKRAM
  9
$DIMBLK2
  1
BTSKRAM
  9
$DIMSTYLE
  2
STANDARD
  9
$DIMCLRD
 70
     0
  9
$DIMCLRE
 70
     0
  9
$DIMCLRT
 70
     0
  9
$DIMTFAC
 40
1.0
  9
$DIMGAP
 40
0.09
  9
$LUNITS
 70
     2
  9
$LUPREC
 70
     0
  9
$SKETCHINC
 40
1.0
  9
$FILLETRAD
 40
3.0
  9
$AUNITS
 70
     0
  9
$AUPREC
 70
     1
  9
$MENU
  1
.
  9
$ELEVATION
 40
0.0
  9
$PELEVATION
 40
0.0
  9
$THICKNESS
 40
0.0
  9
$LIMCHECK
 70
     0
  9
$BLIPMODE
 70
     0
  9
$CHAMFERA
 40
0.0
  9
$CHAMFERB
 40
0.0
  9
$SKPOLY
 70
     0
  9
$TDCREATE
 40
2454495.6735503939
  9
$TDUPDATE
 40
2454705.42648147
  9
$TDINDWG
 40
1.1419531944000001
  9
$TDUSRTIMER
 40
1.1419510764
  9
$USRTIMER
 70
     1
  9
$ANGBASE
 50
0.0
  9
$ANGDIR
 70
     0
  9
$PDMODE
 70
     0
  9
$PDSIZE
 40
0.0
  9
$PLINEWID
 40
0.0
  9
$COORDS
 70
     1
  9
$SPLFRAME
 70
     0
  9
$SPLINETYPE
 70
     6
  9
$SPLINESEGS
 70
     8
  9
$ATTDIA
 70
     1
  9
$ATTREQ
 70
     1
  9
$HANDLING
 70
     1
  9
$HANDSEED
  5
6971
  9
$SURFTAB1
 70
     6
  9
$SURFTAB2
 70
     6
  9
$SURFTYPE
 70
     6
  9
$SURFU
 70
     6
  9
$SURFV
 70
     6
  9
$UCSNAME
  2

  9
$UCSORG
 10
0.0
 20
0.0
 30
0.0
  9
$UCSXDIR
 10
1.0
 20
0.0
 30
0.0
  9
$UCSYDIR
 10
0.0
 20
1.0
 30
0.0
  9
$PUCSNAME
  2

  9
$PUCSORG
 10
0.0
 20
0.0
 30
0.0
  9
$PUCSXDIR
 10
1.0
 20
0.0
 30
0.0
  9
$PUCSYDIR
 10
0.0
 20
1.0
 30
0.0
  9
$USERI1
 70
     0
  9
$USERI2
 70
     0
  9
$USERI3
 70
     0
  9
$USERI4
 70
     0
  9
$USERI5
 70
     0
  9
$USERR1
 40
0.0
  9
$USERR2
 40
0.0
  9
$USERR3
 40
0.0
  9
$USERR4
 40
0.0
  9
$USERR5
 40
0.0
  9
$WORLDVIEW
 70
     1
  9
$SHADEDGE
 70
     3
  9
$SHADEDIF
 70
    70
  9
$TILEMODE
 70
     1
  9
$MAXACTVP
 70
    64
  9
$PLIMCHECK
 70
     0
  9
$PEXTMIN
 10
1.0000000000000000E+020
 20
1.0000000000000000E+020
 30
1.0000000000000000E+020
  9
$PEXTMAX
 10
-1.0000000000000000E+020
 20
-1.0000000000000000E+020
 30
-1.0000000000000000E+020
  9
$PLIMMIN
 10
0.0
 20
0.0
  9
$PLIMMAX
 10
12.0
 20
9.0
  9
$UNITMODE
 70
     0
  9
$VISRETAIN
 70
     1
  9
$PLINEGEN
 70
     0
  9
$PSLTSCALE
 70
     1
  0
ENDSEC
  0
SECTION
  2
TABLES
  0
TABLE
  2
VPORT
 70
     1
  0
VPORT
  2
*ACTIVE
 70
     0
 10
0.0
 20
0.0
 11
1.0
 21
1.0
 12
-386.64115561569503
 22
-35.888175473563031
 13
0.0
 23
0.0
 14
1.0
 24
1.0
 15
3000.0
 25
3000.0
 16
0.0
 26
0.0
 36
5882.1442885718679
 17
7416.2298602620376
 27
918.98640054913437
 37
317.77705773488537
 40
338.4344279262441
 41
1.434137291280148
 42
50.0
 43
0.0
 44
0.0
 50
0.0
 51
0.0
 71
     0
 72
 20000
 73
     1
 74
     1
 75
     1
 76
     0
 77
     0
 78
     0
  0
ENDTAB
  0
TABLE
  2
LTYPE
 70
    97
  0
LTYPE
  2
CONTINUOUS
 70
     0
  3
Solid line
 72
    65
 73
     0
 40
0.0
  0
LTYPE
  2
STIP1
 70
     0
  3
bips: Stiplet 1
 72
    65
 73
     2
 40
2.0
 49
1.0
 49
-1.0
  0
LTYPE
  2
STREGP1
 70
     0
  3
bips: Streg prik 1
 72
    65
 73
     4
 40
2.8999999999999999
 49
1.7
 49
-0.5
 49
0.2
 49
-0.5
  0
LTYPE
  2
STREGP2
 70
     0
  3
bips: Streg prik 2
 72
    65
 73
     4
 40
3.7999999999999989
 49
2.2000000000000002
 49
-0.7
 49
0.2
 49
-0.7
  0
LTYPE
  2
STREGP3
 70
     0
  3
bips: Streg prik 3
 72
    65
 73
     4
 40
5.0
 49
3.0
 49
-0.9
 49
0.2
 49
-0.9
  0
LTYPE
  2
STREGP4
 70
     0
  3
bips: Streg prik 4
 72
    65
 73
     4
 40
6.0
 49
4.0
 49
-0.9
 49
0.2
 49
-0.9
  0
LTYPE
  2
STIP04
 70
     0
  3
bips: Stiplet 0,4
 72
    65
 73
     2
 40
0.8
 49
0.4
 49
-0.4
  0
LTYPE
  2
STIP2
 70
     0
  3
bips: Stiplet 2
 72
    65
 73
     2
 40
3.0
 49
2.0
 49
-1.0
  0
LTYPE
  2
STIP3
 70
     0
  3
bips: Stiplet 3
 72
    65
 73
     2
 40
5.0
 49
3.0
 49
-2.0
  0
LTYPE
  2
STIP4
 70
     0
  3
bips: Stiplet 4
 72
    65
 73
     2
 40
7.0
 49
4.0
 49
-3.0
  0
LTYPE
  2
PRIK07
 70
     0
  3
bips: Prik 0,7
 72
    65
 73
     2
 40
0.8
 49
0.1
 49
-0.7
  0
LTYPE
  2
PRIK1
 70
     0
  3
bips: Prik 1
 72
    65
 73
     2
 40
1.1000000000000001
 49
0.1
 49
-1.0
  0
LTYPE
  2
PRIK15
 70
     0
  3
bips: Prik 1,5
 72
    65
 73
     2
 40
1.6000000000000001
 49
0.1
 49
-1.5
  0
LTYPE
  2
PRIK2
 70
     0
  3
bips: Prik 2
 72
    65
 73
     2
 40
2.1000000000000001
 49
0.1
 49
-2.0
  0
LTYPE
  2
STREG_2P
 70
     0
  3
bips: Steg 2 Prikker
 72
    65
 73
     6
 40
19.399999999999999
 49
13.0
 49
-2.0
 49
0.2
 49
-2.0
 49
0.2
 49
-2.0
  0
LTYPE
  2
MODUL
 70
     0
  3
bips: Modulstreg
 72
    65
 73
     4
 40
18.0
 49
13.0
 49
-2.0
 49
1.0
 49
-2.0
  0
LTYPE
  2
CENT
 70
     0
  3
bips: Centerlinie
 72
    65
 73
     4
 40
23.0
 49
20.0
 49
-1.5
 49
0.0
 49
-1.5
  0
LTYPE
  2
SNIT
 70
     0
  3
bips: Snitlinie
 72
    65
 73
     2
 40
9.0
 49
8.0
 49
-1.0
  0
LTYPE
  2
SNIT2
 70
     0
  3
bips: Snitlinie 2
 72
    65
 73
     6
 40
20.0
 49
10.0
 49
-2.0
 49
2.0
 49
-2.0
 49
2.0
 49
-2.0
  0
LTYPE
  2
MEMBRAN
 70
     0
  3
bips: Membran
 72
    65
 73
     2
 40
20.0
 49
10.0
 49
-10.0
  0
LTYPE
  2
VVS2
 70
     0
  3
bips: VVS2
 72
    65
 73
     2
 40
9.5999999999999996
 49
8.0
 49
-1.6000000000000001
  0
LTYPE
  2
VVS3
 70
     0
  3
bips: VVS3
 72
    65
 73
     4
 40
16.0
 49
12.800000000000001
 49
-1.6000000000000001
 49
0.0
 49
-1.6000000000000001
  0
LTYPE
  2
VVS4
 70
     0
  3
bips: VVS4
 72
    65
 73
     6
 40
17.600000000000001
 49
12.800000000000001
 49
-1.6000000000000001
 49
0.0
 49
-1.6000000000000001
 49
0.0
 49
-1.6000000000000001
  0
LTYPE
  2
VVS5
 70
     0
  3
bips: VVS5
 72
    65
 73
     8
 40
19.199999999999999
 49
12.800000000000001
 49
-1.6000000000000001
 49
0.0
 49
-1.6000000000000001
 49
0.0
 49
-1.6000000000000001
 49
0.0
 49
-1.6000000000000001
  0
LTYPE
  2
VVS6
 70
     0
  3
bips: VVS6
 72
    65
 73
     6
 40
15.199999999999999
 49
5.2000000000000002
 49
-1.6000000000000001
 49
5.2000000000000002
 49
-1.6000000000000001
 49
0.0
 49
-1.6000000000000001
  0
LTYPE
  2
VVS7
 70
     0
  3
bips: VVS7
 72
    65
 73
     8
 40
16.800000000000001
 49
5.2000000000000002
 49
-1.6000000000000001
 49
5.2000000000000002
 49
-1.6000000000000001
 49
0.0
 49
-1.6000000000000001
 49
0.0
 49
-1.6000000000000001
  0
LTYPE
  2
VVS8
 70
     0
  3
bips: VVS8
 72
    65
 73
    10
 40
18.399999999999999
 49
5.2000000000000002
 49
-1.6000000000000001
 49
5.2000000000000002
 49
-1.6000000000000001
 49
0.0
 49
-1.6000000000000001
 49
0.0
 49
-1.6000000000000001
 49
0.0
 49
-1.6000000000000001
  0
LTYPE
  2
CONT-A
 70
     0
  3
---- A ---- A ---- A ----
 72
    65
 73
     5
 40
26.5
 49
10.0
 49
-1.0
 49
-2.5
 49
10.0
 49
-3.0
  0
LTYPE
  2
CONT-ACY
 70
     0
  3
---- ACY ---- ACY ---- ACY ----
 72
    65
 73
     5
 40
28.5
 49
10.0
 49
-1.0
 49
-3.5
 49
10.0
 49
-4.0
  0
LTYPE
  2
CONT-AK1
 70
     0
  3
---- AK1 ---- AK1 ---- AK1 ----
 72
    65
 73
     5
 40
28.5
 49
10.0
 49
-1.0
 49
-3.5
 49
10.0
 49
-4.0
  0
LTYPE
  2
CONT-AK1C
 70
     0
  3
---- AK1C ---- AK1C ---- AK1C ----
 72
    65
 73
     5
 40
30.0
 49
10.0
 49
-1.0
 49
-4.5
 49
10.0
 49
-4.5
  0
LTYPE
  2
CONT-AK1K
 70
     0
  3
---- AK1K ---- AK1K ---- AK1K ----
 72
    65
 73
     5
 40
30.0
 49
10.0
 49
-1.0
 49
-4.5
 49
10.0
 49
-4.5
  0
LTYPE
  2
CONT-AK1R
 70
     0
  3
---- AK1R ---- AK1R ---- AK1R ----
 72
    65
 73
     5
 40
30.0
 49
10.0
 49
-1.0
 49
-4.5
 49
10.0
 49
-4.5
  0
LTYPE
  2
CONT-AK1V
 70
     0
  3
---- AK1V ---- AK1V ---- AK1V ----
 72
    65
 73
     5
 40
30.0
 49
10.0
 49
-1.0
 49
-4.5
 49
10.0
 49
-4.5
  0
LTYPE
  2
CONT-AP1
 70
     0
  3
---- AP1 ---- AP1 ---- AP1 ----
 72
    65
 73
     5
 40
28.5
 49
10.0
 49
-1.0
 49
-3.5
 49
10.0
 49
-4.0
  0
LTYPE
  2
CONT-AP2
 70
     0
  3
---- AP2 ---- AP2 ---- AP2 ----
 72
    65
 73
     5
 40
28.5
 49
10.0
 49
-1.0
 49
-3.5
 49
10.0
 49
-4.0
  0
LTYPE
  2
CONT-AP3
 70
     0
  3
---- AP3 ---- AP3 ---- AP3 ----
 72
    65
 73
     5
 40
28.5
 49
10.0
 49
-1.0
 49
-3.5
 49
10.0
 49
-4.0
  0
LTYPE
  2
CONT-AZ
 70
     0
  3
---- AZ ---- AZ ---- AZ ----
 72
    65
 73
     5
 40
27.0
 49
10.0
 49
-1.0
 49
-2.5
 49
10.0
 49
-3.5
  0
LTYPE
  2
CONT-BBC
 70
     0
  3
---- BBC ---- BBC ---- BBC ----
 72
    65
 73
     5
 40
28.5
 49
10.0
 49
-1.0
 49
-3.5
 49
10.0
 49
-4.0
  0
LTYPE
  2
CONT-BBK
 70
     0
  3
---- BBK ---- BBK ---- BBK ----
 72
    65
 73
     5
 40
28.5
 49
10.0
 49
-1.0
 49
-3.5
 49
10.0
 49
-4.0
  0
LTYPE
  2
CONT-BBV
 70
     0
  3
---- BBV ---- BBV ---- BBV ----
 72
    65
 73
     5
 40
28.5
 49
10.0
 49
-1.0
 49
-3.5
 49
10.0
 49
-4.0
  0
LTYPE
  2
CONT-BF
 70
     0
  3
---- BF ---- BF ---- BF ----
 72
    65
 73
     5
 40
27.0
 49
10.0
 49
-1.0
 49
-2.5
 49
10.0
 49
-3.5
  0
LTYPE
  2
CONT-BR
 70
     0
  3
---- BR ---- BR ---- BR ----
 72
    65
 73
     5
 40
27.0
 49
10.0
 49
-1.0
 49
-2.5
 49
10.0
 49
-3.5
  0
LTYPE
  2
CONT-C
 70
     0
  3
---- C ---- C ---- C ----
 72
    65
 73
     5
 40
26.5
 49
10.0
 49
-1.0
 49
-2.5
 49
10.0
 49
-3.0
  0
LTYPE
  2
CONT-C1
 70
     0
  3
---- C1 ---- C1 ---- C1 ----
 72
    65
 73
     5
 40
27.0
 49
10.0
 49
-1.0
 49
-2.5
 49
10.0
 49
-3.5
  0
LTYPE
  2
CONT-C3
 70
     0
  3
---- C3 ---- C3 ---- C3 ----
 72
    65
 73
     5
 40
27.0
 49
10.0
 49
-1.0
 49
-2.5
 49
10.0
 49
-3.5
  0
LTYPE
  2
CONT-CAR
 70
     0
  3
---- Car ---- Car ---- Car ----
 72
    65
 73
     5
 40
28.5
 49
10.0
 49
-1.0
 49
-3.5
 49
10.0
 49
-4.0
  0
LTYPE
  2
CONT-CO2
 70
     0
  3
---- CO2 ---- CO2 ---- CO2 ----
 72
    65
 73
     5
 40
28.5
 49
10.0
 49
-1.0
 49
-3.5
 49
10.0
 49
-4.0
  0
LTYPE
  2
CONT-CR
 70
     0
  3
---- CR ---- CR ---- CR ----
 72
    65
 73
     5
 40
27.0
 49
10.0
 49
-1.0
 49
-2.5
 49
10.0
 49
-3.5
  0
LTYPE
  2
CONT-D
 70
     0
  3
---- D ---- D ---- D ----
 72
    65
 73
     5
 40
26.5
 49
10.0
 49
-1.0
 49
-2.5
 49
10.0
 49
-3.0
  0
LTYPE
  2
CONT-DBK
 70
     0
  3
---- DBK ---- DBK ---- DBK ----
 72
    65
 73
     5
 40
28.5
 49
10.0
 49
-1.0
 49
-3.5
 49
10.0
 49
-4.0
  0
LTYPE
  2
CONT-DH
 70
     0
  3
---- DH ---- DH ---- DH ----
 72
    65
 73
     5
 40
27.0
 49
10.0
 49
-1.0
 49
-2.5
 49
10.0
 49
-3.5
  0
LTYPE
  2
CONT-DL
 70
     0
  3
---- DL ---- DL ---- DL ----
 72
    65
 73
     5
 40
27.0
 49
10.0
 49
-1.0
 49
-2.5
 49
10.0
 49
-3.5
  0
LTYPE
  2
CONT-DM
 70
     0
  3
---- DM ---- DM ---- DM ----
 72
    65
 73
     5
 40
27.0
 49
10.0
 49
-1.0
 49
-2.5
 49
10.0
 49
-3.5
  0
LTYPE
  2
CONT-DR
 70
     0
  3
---- DR ---- DR ---- DR ----
 72
    65
 73
     5
 40
27.0
 49
10.0
 49
-1.0
 49
-2.5
 49
10.0
 49
-3.5
  0
LTYPE
  2
CONT-DSV
 70
     0
  3
---- DSV ---- DSV ---- DSV ----
 72
    65
 73
     5
 40
28.5
 49
10.0
 49
-1.0
 49
-3.5
 49
10.0
 49
-4.0
  0
LTYPE
  2
CONT-ES
 70
     0
  3
---- ES ---- ES ---- ES ----
 72
    65
 73
     5
 40
27.0
 49
10.0
 49
-1.0
 49
-2.5
 49
10.0
 49
-3.5
  0
LTYPE
  2
CONT-FF
 70
     0
  3
---- FF ---- FF ---- FF ----
 72
    65
 73
     5
 40
27.0
 49
10.0
 49
-1.0
 49
-2.5
 49
10.0
 49
-3.5
  0
LTYPE
  2
CONT-FG
 70
     0
  3
---- FG ---- FG ---- FG ----
 72
    65
 73
     5
 40
27.0
 49
10.0
 49
-1.0
 49
-2.5
 49
10.0
 49
-3.5
  0
LTYPE
  2
CONT-FR
 70
     0
  3
---- FR ---- FR ---- FR ----
 72
    65
 73
     5
 40
27.0
 49
10.0
 49
-1.0
 49
-2.5
 49
10.0
 49
-3.5
  0
LTYPE
  2
CONT-G
 70
     0
  3
---- G ---- G ---- G ----
 72
    65
 73
     5
 40
26.5
 49
10.0
 49
-1.0
 49
-2.5
 49
10.0
 49
-3.0
  0
LTYPE
  2
CONT-GAS
 70
     0
  3
---- GAS ---- GAS ---- GAS ----
 72
    65
 73
     5
 40
28.5
 49
10.0
 49
-1.0
 49
-3.5
 49
10.0
 49
-4.0
  0
LTYPE
  2
CONT-GF
 70
     0
  3
---- GF ---- GF ---- GF ----
 72
    65
 73
     5
 40
27.0
 49
10.0
 49
-1.0
 49
-2.5
 49
10.0
 49
-3.5
  0
LTYPE
  2
CONT-GR
 70
     0
  3
---- GR ---- GR ---- GR ----
 72
    65
 73
     5
 40
27.0
 49
10.0
 49
-1.0
 49
-2.5
 49
10.0
 49
-3.5
  0
LTYPE
  2
CONT-H2
 70
     0
  3
---- H2 ---- H2 ---- H2 ----
 72
    65
 73
     5
 40
27.0
 49
10.0
 49
-1.0
 49
-2.5
 49
10.0
 49
-3.5
  0
LTYPE
  2
CONT-HE
 70
     0
  3
---- He ---- He ---- He ----
 72
    65
 73
     5
 40
27.0
 49
10.0
 49
-1.0
 49
-2.5
 49
10.0
 49
-3.5
  0
LTYPE
  2
CONT-IF
 70
     0
  3
---- IF ---- IF ---- IF ----
 72
    65
 73
     5
 40
27.0
 49
10.0
 49
-1.0
 49
-2.5
 49
10.0
 49
-3.5
  0
LTYPE
  2
CONT-IOF
 70
     0
  3
---- IOF ---- IOF ---- IOF ----
 72
    65
 73
     5
 40
28.5
 49
10.0
 49
-1.0
 49
-3.5
 49
10.0
 49
-4.0
  0
LTYPE
  2
CONT-IR
 70
     0
  3
---- IR ---- IR ---- IR ----
 72
    65
 73
     5
 40
27.0
 49
10.0
 49
-1.0
 49
-2.5
 49
10.0
 49
-3.5
  0
LTYPE
  2
CONT-K
 70
     0
  3
---- K ---- K ---- K ----
 72
    65
 73
     5
 40
26.5
 49
10.0
 49
-1.0
 49
-2.5
 49
10.0
 49
-3.0
  0
LTYPE
  2
CONT-KBK
 70
     0
  3
---- KBK ---- KBK ---- KBK ----
 72
    65
 73
     5
 40
28.5
 49
10.0
 49
-1.0
 49
-3.5
 49
10.0
 49
-4.0
  0
LTYPE
  2
CONT-KVB
 70
     0
  3
---- KVB ---- KVB ---- KVB ----
 72
    65
 73
     5
 40
28.5
 49
10.0
 49
-1.0
 49
-3.5
 49
10.0
 49
-4.0
  0
LTYPE
  2
CONT-M
 70
     0
  3
---- M ---- M ---- M ----
 72
    65
 73
     5
 40
26.5
 49
10.0
 49
-1.0
 49
-2.5
 49
10.0
 49
-3.0
  0
LTYPE
  2
CONT-N2
 70
     0
  3
---- N2 ---- N2 ---- N2 ----
 72
    65
 73
     5
 40
27.0
 49
10.0
 49
-1.0
 49
-2.5
 49
10.0
 49
-3.5
  0
LTYPE
  2
CONT-N2O
 70
     0
  3
---- N2O ---- N2O ---- N2O ----
 72
    65
 73
     5
 40
28.5
 49
10.0
 49
-1.0
 49
-3.5
 49
10.0
 49
-4.0
  0
LTYPE
  2
CONT-NO
 70
     0
  3
---- NO ---- NO ---- NO ----
 72
    65
 73
     5
 40
27.0
 49
10.0
 49
-1.0
 49
-2.5
 49
10.0
 49
-3.5
  0
LTYPE
  2
CONT-O
 70
     0
  3
---- O ---- O ---- O ----
 72
    65
 73
     5
 40
26.5
 49
10.0
 49
-1.0
 49
-2.5
 49
10.0
 49
-3.0
  0
LTYPE
  2
CONT-O2
 70
     0
  3
---- O2 ---- 02 ---- 02 ----
 72
    65
 73
     5
 40
27.0
 49
10.0
 49
-1.0
 49
-2.5
 49
10.0
 49
-3.5
  0
LTYPE
  2
CONT-OF
 70
     0
  3
---- OF ---- OF ---- OF ----
 72
    65
 73
     5
 40
27.0
 49
10.0
 49
-1.0
 49
-2.5
 49
10.0
 49
-3.5
  0
LTYPE
  2
CONT-PBF
 70
     0
  3
---- PBF ---- PBF ---- PBF ----
 72
    65
 73
     5
 40
28.5
 49
10.0
 49
-1.0
 49
-3.5
 49
10.0
 49
-4.0
  0
LTYPE
  2
CONT-PBR
 70
     0
  3
---- PBR ---- PBR ---- PBR ----
 72
    65
 73
     5
 40
28.5
 49
10.0
 49
-1.0
 49
-3.5
 49
10.0
 49
-4.0
  0
LTYPE
  2
CONT-PP
 70
     0
  3
---- PP ---- PP ---- PP ----
 72
    65
 73
     5
 40
27.0
 49
10.0
 49
-1.0
 49
-2.5
 49
10.0
 49
-3.5
  0
LTYPE
  2
CONT-ROW
 70
     0
  3
---- ROW ---- ROW ---- ROW ----
 72
    65
 73
     5
 40
28.5
 49
10.0
 49
-1.0
 49
-3.5
 49
10.0
 49
-4.0
  0
LTYPE
  2
CONT-S
 70
     0
  3
---- S ---- S ---- S ----
 72
    65
 73
     5
 40
26.5
 49
10.0
 49
-1.0
 49
-2.5
 49
10.0
 49
-3.0
  0
LTYPE
  2
CONT-SBK
 70
     0
  3
---- SBK ---- SBK ---- SBK ----
 72
    65
 73
     5
 40
28.5
 49
10.0
 49
-1.0
 49
-3.5
 49
10.0
 49
-4.0
  0
LTYPE
  2
CONT-SP
 70
     0
  3
---- SP ---- SP ---- SP ----
 72
    65
 73
     5
 40
27.0
 49
10.0
 49
-1.0
 49
-2.5
 49
10.0
 49
-3.5
  0
LTYPE
  2
CONT-TL
 70
     0
  3
---- TL ---- TL ---- TL ----
 72
    65
 73
     5
 40
27.0
 49
10.0
 49
-1.0
 49
-2.5
 49
10.0
 49
-3.5
  0
LTYPE
  2
CONT-VC
 70
     0
  3
---- VC ---- VC ---- VC ----
 72
    65
 73
     5
 40
27.0
 49
10.0
 49
-1.0
 49
-2.5
 49
10.0
 49
-3.5
  0
LTYPE
  2
CONT-WFI
 70
     0
  3
---- WFI ---- WFI ---- WFI ----
 72
    65
 73
     5
 40
28.5
 49
10.0
 49
-1.0
 49
-3.5
 49
10.0
 49
-4.0
  0
LTYPE
  2
USTN_LINESTYLE1
 70
     0
  3
. . . . . . . . . . . . . . . . . . . . . . . .
 72
    65
 73
     2
 40
1.399999999999999
 49
0.35
 49
-1.05
  0
LTYPE
  2
USTN_LINESTYLE2
 70
     0
  3
_ _ _ _ _ _ _ _ _ _ _ _ _ _ _ _ _ _ _ _ _ _ _ _
 72
    65
 73
     2
 40
2.7999999999999989
 49
1.75
 49
-1.05
  0
LTYPE
  2
USTN_LINESTYLE3
 70
     0
  3
____   ____   ____   ____   ____   ____   ____ 
 72
    65
 73
     2
 40
5.5999999999999988
 49
4.2000000000000002
 49
-1.399999999999999
  0
LTYPE
  2
USTN_LINESTYLE4
 70
     0
  3
____.____.____.____.____.____.____.____.____.__
 72
    65
 73
     4
 40
5.5999999999999988
 49
2.7999999999999989
 49
-1.05
 49
0.7
 49
-1.05
  0
LTYPE
  2
USTN_LINESTYLE5
 70
     0
  3
_ _ _ _ _ _ _ _ _ _ _ _ _ _ _ _ _ _ _ _ _ _ _ _
 72
    65
 73
     2
 40
2.7999999999999989
 49
1.399999999999999
 49
-1.399999999999999
  0
LTYPE
  2
USTN_LINESTYLE6
 70
     0
  3
_______________ .. __________________________ .
 72
    65
 73
     6
 40
5.5999999999999988
 49
2.1000000000000001
 49
-0.7
 49
0.7
 49
-0.7
 49
0.7
 49
-0.7
  0
LTYPE
  2
USTN_LINESTYLE7
 70
     0
  3
________________ _ _________________________ _ 
 72
    65
 73
     4
 40
5.5999999999999988
 49
2.7999999999999989
 49
-0.7
 49
1.399999999999999
 49
-0.7
  0
ENDTAB
  0
TABLE
  2
LAYER
 70
    23
  0
LAYER
  2
0
 70
     0
 62
     7
  6
CONTINUOUS
  0
LAYER
  2
DEFPOINTS
 70
     0
 62
     7
  6
CONTINUOUS
  0
LAYER
  2
A29---O
 70
     0
 62
     8
  6
CONTINUOUS
  0
LAYER
  2
A09-MT-
 70
     0
 62
     7
  6
CONTINUOUS
  0
LAYER
  2
A21---O
 70
     0
 62
     8
  6
CONTINUOUS
  0
LAYER
  2
A29--S-
 70
     0
 62
     8
  6
CONTINUOUS
  0
LAYER
  2
AOFFU--
 70
     0
 62
     3
  6
CONTINUOUS
  0
LAYER
  2
A21--U-
 70
     0
 62
     8
  6
STIP1
  0
LAYER
  2
A24----
 70
     0
 62
   142
  6
CONTINUOUS
  0
LAYER
  2
A24--U-
 70
     0
 62
   142
  6
STIP1
  0
LAYER
  2
A27--U-
 70
     0
 62
     8
  6
STIP1
  0
LAYER
  2
A23--U-
 70
     0
 62
     8
  6
STIP1
  0
LAYER
  2
A23---O
 70
     0
 62
     8
  6
CONTINUOUS
  0
LAYER
  2
A27---O
 70
     0
 62
     8
  6
CONTINUOUS
  0
LAYER
  2
A34----
 70
     0
 62
    13
  6
CONTINUOUS
  0
LAYER
  2
A34--U-
 70
     0
 62
    13
  6
STIP1
  0
LAYER
  2
A29--U-
 70
     0
 62
     7
  6
STIP1
  0
LAYER
  2
AOFFV--
 70
     0
 62
    30
  6
CONTINUOUS
  0
LAYER
  2
A09-H--
 70
     0
 62
     7
  6
CONTINUOUS
  0
LAYER
  2
V09-S--
 70
     0
 62
     7
  6
CONTINUOUS
  0
LAYER
  2
VOFFV--
 70
     0
 62
    30
  6
CONTINUOUS
  0
LAYER
  2
K09-S--
 70
     0
 62
     7
  6
CONTINUOUS
  0
LAYER
  2
AOFF---
 70
     0
 62
     7
  6
CONTINUOUS
  0
ENDTAB
  0
TABLE
  2
STYLE
 70
    11
  0
STYLE
  2
STANDARD
 70
     0
 40
0.0
 41
1.0
 50
0.0
 71
     0
 42
0.2
  3
txt
  4

  0
STYLE
  2
ANNOTATIVE
 70
     0
 40
0.0
 41
1.0
 50
0.0
 71
     0
 42
0.2
  3
txt
  4

  0
STYLE
  2
ARCH-DIM
 70
     0
 40
0.0
 41
0.75
 50
0.0
 71
     0
 42
606.95912056173256
  3
romans.shx
  4

  0
STYLE
  2
SCHEDULE-HEADER
 70
     0
 40
0.0
 41
1.0
 50
0.0
 71
     0
 42
0.09375
  3
txt
  4

  0
STYLE
  2
GRIDBUBTXT
 70
     0
 40
0.0
 41
1.0
 50
0.0
 71
     0
 42
2.5
  3
txt
  4

  0
STYLE
  2
ARIAL
 70
     0
 40
0.0
 41
1.0
 50
0.0
 71
     0
 42
2.5
  3
txt
  4

  0
STYLE
  2
ROMANS
 70
     0
 40
0.0
 41
1.0
 50
0.0
 71
     0
 42
2.5
  3
Romans.shx
  4

  0
STYLE
  2
ARIAL-BOLD
 70
     0
 40
0.0
 41
1.0
 50
0.0
 71
     0
 42
0.125
  3
txt
  4

  0
STYLE
  2
SKILT
 70
     0
 40
0.0
 41
1.0
 50
0.0
 71
     0
 42
2.0
  3
txt
  4

  0
STYLE
  2
BTH
 70
     0
 40
0.0
 41
1.0
 50
0.0
 71
     0
 42
3.0
  3
romans.shx
  4

  0
STYLE
  2
TITLE-NORMAL
 70
     0
 40
0.0
 41
0.75
 50
0.0
 71
     0
 42
0.25
  3
txt
  4

  0
ENDTAB
  0
TABLE
  2
VIEW
 70
     0
  0
ENDTAB
  0
TABLE
  2
UCS
 70
     0
  0
ENDTAB
  0
TABLE
  2
APPID
 70
     4
  0
APPID
  2
ACAD
 70
     0
  0
APPID
  2
ACADANNOTATIVE
 70
     0
  0
APPID
  2
ACAD_MLEADERVER
 70
     0
  0
APPID
  2
ACAD_EXEMPT_FROM_CAD_STANDARDS
 70
     0
  0
ENDTAB
  0
TABLE
  2
DIMSTYLE
 70
     2
  0
DIMSTYLE
  2
STANDARD
 70
     0
  3

  4

  5

  6

  7

 40
1.0
 41
0.18
 42
0.0625
 43
0.38
 44
0.18
 45
0.0
 46
0.0
 47
0.0
 48
0.0
140
0.18
141
0.09
142
0.0
143
25.399999999999999
144
1.0
145
0.0
146
1.0
147
0.09
 71
     0
 72
     0
 73
     1
 74
     1
 75
     0
 76
     0
 77
     0
 78
     0
170
     0
171
     2
172
     0
173
     0
174
     0
175
     0
176
     0
177
     0
178
     0
  0
DIMSTYLE
  2
ANNOTATIVE
 70
     0
  3

  4

  5

  6

  7

 40
1.0
 41
0.18
 42
0.0625
 43
0.38
 44
0.18
 45
0.0
 46
0.0
 47
0.0
 48
0.0
140
0.18
141
0.09
142
0.0
143
25.399999999999999
144
1.0
145
0.0
146
1.0
147
0.09
 71
     0
 72
     0
 73
     1
 74
     1
 75
     0
 76
     0
 77
     0
 78
     0
170
     0
171
     2
172
     0
173
     0
174
     0
175
     0
176
     0
177
     0
178
     0
  0
ENDTAB
  0
ENDSEC
  0
SECTION
  2
BLOCKS
  0
BLOCK
  8
0
  2
$MODEL_SPACE
 70
     0
 10
0.0
 20
0.0
 30
0.0
  3
$MODEL_SPACE
  1

  0
ENDBLK
  5
6851
  8
0
  0
BLOCK
 67
     1
  8
0
  2
$PAPER_SPACE
 70
     0
 10
0.0
 20
0.0
 30
0.0
  3
$PAPER_SPACE
  1

  0
ENDBLK
  5
684D
 67
     1
  8
0
  0
BLOCK
  8
0
  2
_ARCHTICK
 70
     0
 10
0.0
 20
0.0
 30
0.0
  3
_ARCHTICK
  1

  0
POLYLINE
  5
1B5
  8
0
  6
BYBLOCK
 62
     0
 66
     1
 10
0.0
 20
0.0
 30
0.0
 40
0.150000081
 41
0.150000081
  0
VERTEX
  5
695F
  8
0
  6
BYBLOCK
 62
     0
 10
-0.5000002699998732
 20
-0.5000002699998732
 30
0.0
  0
VERTEX
  5
6960
  8
0
  6
BYBLOCK
 62
     0
 10
0.5000002699998732
 20
0.5000002699998732
 30
0.0
  0
SEQEND
  5
6961
  8
0
  6
BYBLOCK
 62
     0
  0
ENDBLK
  5
68D9
  8
0
  0
BLOCK
  8
0
  2
_OPEN90
 70
     0
 10
0.0
 20
0.0
 30
0.0
  3
_OPEN90
  1

  0
LINE
  5
3C86
  8
0
  6
BYBLOCK
 62
     0
 10
-0.5000002699998732
 20
0.5000002699998732
 30
0.0
 11
0.0
 21
0.0
 31
0.0
  0
LINE
  5
3C87
  8
0
  6
BYBLOCK
 62
     0
 10
0.0
 20
0.0
 30
0.0
 11
-0.5000002699998732
 21
-0.5000002699998732
 31
0.0
  0
LINE
  5
3C88
  8
0
  6
BYBLOCK
 62
     0
 10
0.0
 20
0.0
 30
0.0
 11
-1.000000539999746
 21
0.0
 31
0.0
  0
ENDBLK
  5
68DC
  8
0
  0
BLOCK
  8
0
  2
_SMALL
 70
     0
 10
0.0
 20
0.0
 30
0.0
  3
_SMALL
  1

  0
CIRCLE
  5
3C8C
  8
0
 62
     0
 10
0.0
 20
0.0
 30
0.0
 40
0.25
  0
ENDBLK
  5
68DF
  8
0
  0
BLOCK
  8
0
  2
BUBBLEDEF
 70
     2
 10
0.0
 20
0.0
 30
0.0
  3
BUBBLEDEF
  1

  0
CIRCLE
  5
223D
  8
A09-MT-
  6
CONTINUOUS
 10
0.0
 20
0.0
 30
0.0
 40
1.5
  0
ATTDEF
  5
223E
  8
A09-MT-
  6
CONTINUOUS
 10
-0.9422431161853593
 20
-0.5
 30
0.0
 40
1.0
  1
XX
  7
GRIDBUBTXT
 72
     4
 11
0.0
 21
0.0
 31
0.0
  3
HHH
  2
LABEL
 70
     0
  0
ENDBLK
  5
68E2
  8
0
  0
BLOCK
  8
0
  2
LOC_LINE
 70
     0
 10
0.0
 20
0.0
 30
0.0
  3
LOC_LINE
  1

  0
LINE
  5
1B02
  8
0
 10
-0.5
 20
0.0
 30
0.0
 11
0.5
 21
0.0
 31
0.0
  0
ENDBLK
  5
68E5
  8
0
  0
BLOCK
  8
0
  2
LOC_LINES
 70
     0
 10
0.0
 20
0.0
 30
0.0
  3
LOC_LINES
  1

  0
LINE
  5
1B0C
  8
0
 10
-0.5
 20
0.0
 30
0.0
 11
0.5
 21
0.0
 31
0.0
  0
LINE
  5
1B0D
  8
0
 10
-0.5
 20
1.0
 30
0.0
 11
0.5
 21
1.0
 31
0.0
  0
ENDBLK
  5
68E8
  8
0
  0
BLOCK
  8
0
  2
_OBLIQUE
 70
     0
 10
0.0
 20
0.0
 30
0.0
  3
_OBLIQUE
  1

  0
LINE
  5
1DFF
  8
0
  6
BYBLOCK
 62
     0
 10
-0.5
 20
-0.5
 30
0.0
 11
0.5
 21
0.5
 31
0.0
  0
ENDBLK
  5
68EB
  8
0
  0
BLOCK
  8
0
  2
SECTIONBUBBLEDEF
 70
     2
 10
0.0
 20
0.0
 30
0.0
  3
SECTIONBUBBLEDEF
  1

  0
LINE
  5
1E16
  8
0
 10
-2.1428571428571419
 20
-2.142857142857141
 30
0.0
 11
-0.0000000000000013
 21
0.0000000000000001
 31
0.0
  0
LINE
  5
1E17
  8
0
 10
0.0
 20
0.0
 30
0.0
 11
2.142857142857141
 21
-2.142857142857141
 31
0.0
  0
LINE
  5
1E18
  8
0
 10
0.0
 20
0.0
 30
0.0
 11
-0.0000000000000014
 21
-7.4999999999999991
 31
0.0
  0
LINE
  5
1E19
  8
0
 10
-3.0
 20
0.0000000000000001
 30
0.0
 11
3.0
 21
0.0
 31
0.0
  0
ATTDEF
  5
1E1A
  8
0
  6
BYBLOCK
 62
     0
 10
-0.9317871759890859
 20
0.5
 30
0.0
 40
1.0
  1
XX
  7
ARIAL
 72
     4
 11
0.0000000000000001
 21
1.0
 31
0.0
  3
Snit
  2
LABEL
 70
     0
  0
ENDBLK
  5
68EE
  8
0
  0
BLOCK
  8
0
  2
ELEVATIONBUBBLEDEF
 70
     2
 10
0.0
 20
0.0
 30
0.0
  3
ELEVATIONBUBBLEDEF
  1

  0
CIRCLE
  5
1E1E
  8
0
  6
BYBLOCK
 62
     0
 10
0.0
 20
0.0
 30
0.0
 40
2.0
  0
LINE
  5
1E1F
  8
0
  6
BYBLOCK
 62
     0
 10
-3.0
 20
0.0
 30
0.0
 11
0.0
 21
3.0
 31
0.0
  0
LINE
  5
1E20
  8
0
  6
BYBLOCK
 62
     0
 10
3.0
 20
0.0
 30
0.0
 11
0.0
 21
3.0
 31
0.0
  0
LINE
  5
1E21
  8
0
  6
BYBLOCK
 62
     0
 10
3.0
 20
0.0
 30
0.0
 11
2.0
 21
0.0
 31
0.0
  0
LINE
  5
1E22
  8
0
  6
BYBLOCK
 62
     0
 10
-3.0
 20
0.0
 30
0.0
 11
-2.0
 21
0.0
 31
0.0
  0
ATTDEF
  5
1E23
  8
0
  6
BYBLOCK
 62
     0
 10
-0.9317871759890859
 20
-0.5
 30
0.0
 40
1.0
  1
XX
  7
ARIAL
 72
     4
 11
0.0
 21
0.0
 31
0.0
  3
HHH
  2
LABEL
 70
     0
  0
ENDBLK
  5
68F1
  8
0
  0
BLOCK
  8
0
  2
_CLOSEDFILLED
 70
     0
 10
0.0
 20
0.0
 30
0.0
  3
_CLOSEDFILLED
  1

  0
SOLID
  5
3C0F
  8
0
 10
-0.0393701637795964
 20
-0.0065616939633973
 30
0.0
 11
-0.0393701637795964
 21
0.0065616939633973
 31
0.0
 12
0.0
 22
0.0
 32
0.0
 13
0.0
 23
0.0
 33
0.0
  0
ENDBLK
  5
68F4
  8
0
  0
BLOCK
  8
0
  2
M-SKILT
 70
     2
 10
0.0
 20
0.0
 30
0.0
  3
M-SKILT
  1

  0
TEXT
  5
3DBE
  8
A09-H--
 10
10.0
 20
33.84618008185538
 30
0.0
 40
2.5
  1
Emne:
  7
SKILT
  0
TEXT
  5
3DBF
  8
A09-H--
 10
10.0
 20
37.862210095497943
 30
0.0
 40
2.5
  1
Projekt:
  7
SKILT
  0
TEXT
  5
3DC0
  8
A09-H--
 10
10.0
 20
25.81412005457025
 30
0.0
 40
2.5
  1
Tegner:
  7
SKILT
  0
ATTDEF
  5
3DC1
  8
A09-H--
 10
30.0
 20
33.84618008185538
 30
0.0
 40
2.5
  1

  7
SKILT
  3
Tekstlinie 1 af 2:
  2
TEKSTLINIE1
 70
     0
  0
ATTDEF
  5
3DC2
  8
A09-H--
 10
30.0
 20
29.83015006821282
 30
0.0
 40
2.5
  1

  7
SKILT
  3
Tekstlinie 2 af 2:
  2
TEKSTLINIE2
 70
     0
  0
ATTDEF
  5
3DC3
  8
A09-H--
 10
30.0
 20
37.862210095497943
 30
0.0
 40
2.5
  1

  7
SKILT
  3
Sags nummer:
  2
SAGSNR
 70
     0
  0
ATTDEF
  5
3DC4
  8
A09-H--
 10
30.0
 20
25.81412005457025
 30
0.0
 40
2.5
  1

  7
SKILT
  3
Tegnet af / signatur:
  2
SIGN
 70
     0
  0
TEXT
  5
3DC5
  8
A09-H--
 10
10.0
 20
21.79809004092769
 30
0.0
 40
2.5
  1
Ansvar:
  7
SKILT
  0
TEXT
  5
3DC6
  8
A09-H--
 10
10.0
 20
17.78206002728513
 30
0.0
 40
2.5
  1
Kontrol:
  7
SKILT
  0
TEXT
  5
3DC7
  8
A09-H--
 10
10.0
 20
13.76603001364256
 30
0.0
 40
2.5
  1
Gemt af:
  7
SKILT
  0
ATTDEF
  5
3DC8
  8
A09-H--
 10
30.0
 20
21.79809004092769
 30
0.0
 40
2.5
  1

  7
SKILT
  3
Sagsansvarlig signatur:
  2
ANSV
 70
     0
  0
ATTDEF
  5
3DC9
  8
A09-H--
 10
30.0
 20
17.78206002728513
 30
0.0
 40
2.5
  1

  7
SKILT
  3
Kontrolleret og godkendt af:
  2
KONT
 70
     0
  0
ATTDEF
  5
3DCA
  8
A09-H--
 10
30.0
 20
13.76603001364256
 30
0.0
 40
2.5
  1

  7
SKILT
  3
Sidst gemt af:
  2
LOGIN
 70
     0
  0
TEXT
  5
3DCB
  8
A09-H--
 10
10.0
 20
9.75
 30
0.0
 40
2.5
  1
Gemt dato:
  7
SKILT
  0
ATTDEF
  5
3DCC
  8
A09-H--
 10
30.0
 20
9.75
 30
0.0
 40
2.5
  1

  7
SKILT
  3
Sidst gemt den (dato):
  2
GEMT
 70
     0
  0
ENDBLK
  5
68F7
  8
0
  0
BLOCK
  8
0
  2
FOLDE
 70
     0
 10
0.0
 20
0.0
 30
0.0
  3
FOLDE
  1

  0
LINE
  5
3E65
  8
K09-S--
 10
0.0
 20
10.0
 30
0.0
 11
0.0
 21
0.0
 31
0.0
  0
LINE
  5
3E66
  8
K09-S--
 10
0.0
 20
0.0
 30
0.0
 11
10.0
 21
0.0
 31
0.0
  0
LINE
  5
3E67
  8
K09-S--
 10
420.0
 20
10.0
 30
0.0
 11
420.0
 21
0.0
 31
0.0
  0
LINE
  5
3E68
  8
K09-S--
 10
420.0
 20
0.0
 30
0.0
 11
410.0
 21
0.0
 31
0.0
  0
LINE
  5
3E69
  8
K09-S--
 10
0.0
 20
287.0
 30
0.0
 11
0.0
 21
297.0
 31
0.0
  0
LINE
  5
3E6A
  8
K09-S--
 10
0.0
 20
297.0
 30
0.0
 11
10.0
 21
297.0
 31
0.0
  0
LINE
  5
3E6B
  8
K09-S--
 10
420.0
 20
287.0
 30
0.0
 11
420.0
 21
297.0
 31
0.0
  0
LINE
  5
3E6C
  8
K09-S--
 10
420.0
 20
297.0
 30
0.0
 11
410.0
 21
297.0
 31
0.0
  0
LINE
  5
3E6D
  8
K09-S--
 10
210.0
 20
0.0
 30
0.0
 11
210.0
 21
10.0
 31
0.0
  0
LINE
  5
3E6E
  8
K09-S--
 10
200.0
 20
0.0000000000000018
 30
0.0
 11
220.0
 21
0.0000000000000018
 31
0.0
  0
LINE
  5
3E6F
  8
K09-S--
 10
210.0
 20
297.0
 30
0.0
 11
210.0
 21
287.0
 31
0.0
  0
LINE
  5
3E70
  8
K09-S--
 10
200.0
 20
297.0
 30
0.0
 11
220.0
 21
297.0
 31
0.0
  0
ENDBLK
  5
68FA
  8
0
  0
BLOCK
  8
0
  2
_NONE
 70
     0
 10
0.0
 20
0.0
 30
0.0
  3
_NONE
  1

  0
ENDBLK
  5
68FD
  8
0
  0
BLOCK
  8
0
  2
PILP
 70
     0
 10
0.0
 20
0.0
 30
0.0
  3
PILP
  1

  0
LINE
  5
407D
  8
0
 10
-17.67766952964303
 20
-17.677669529650299
 30
0.0
 11
17.677669529686678
 21
17.677669529677591
 31
0.0
  0
LINE
  5
407E
  8
0
 10
0.0000000000145519
 20
-17.677669529650299
 30
0.0
 11
0.0000000000145519
 21
17.677669529677591
 31
0.0
  0
ENDBLK
  5
6900
  8
0
  0
BLOCK
  8
0
  2
BTSKRAM
 70
     0
 10
0.0
 20
0.0
 30
0.0
  3
BTSKRAM
  1

  0
LINE
  5
4082
  8
0
 10
0.0
 20
0.0
 30
0.0
 11
-1.0
 21
0.0
 31
0.0
  0
LINE
  5
4083
  8
0
 10
-1.0
 20
-1.0
 30
0.0
 11
1.0
 21
1.0
 31
0.0
  0
LINE
  5
4084
  8
0
 10
0.0
 20
1.0
 30
0.0
 11
0.0
 21
-1.0
 31
0.0
  0
LINE
  5
4085
  8
0
 10
0.0
 20
0.0
 30
0.0
 11
1.0
 21
0.0
 31
0.0
  0
ENDBLK
  5
6903
  8
0
  0
BLOCK
  8
0
  2
NUL
 70
     0
 10
0.0
 20
0.0
 30
0.0
  3
NUL
  1

  0
CIRCLE
  5
4089
  8
0
 10
0.0
 20
0.0
 30
0.0
 40
0.3490717066091655
  0
LINE
  5
408A
  8
0
 10
0.0
 20
-0.5
 30
0.0
 11
0.0
 21
0.5
 31
0.0
  0
LINE
  5
408B
  8
0
 10
-1.0
 20
0.0
 30
0.0
 11
0.0
 21
0.0
 31
0.0
  0
ENDBLK
  5
6906
  8
0
  0
BLOCK
  8
0
  2
FORTPIL
 70
     0
 10
0.0
 20
0.0
 30
0.0
  3
FORTPIL
  1

  0
LINE
  5
408F
  8
0
 10
0.0
 20
0.0
 30
0.0
 11
-0.5
 21
0.5
 31
0.0
  0
LINE
  5
4090
  8
0
 10
0.0
 20
0.0
 30
0.0
 11
-0.5
 21
-0.5
 31
0.0
  0
LINE
  5
4091
  8
0
 10
0.0
 20
-0.5
 30
0.0
 11
0.0
 21
0.5
 31
0.0
  0
LINE
  5
4092
  8
0
 10
-1.0
 20
0.0
 30
0.0
 11
0.0
 21
0.0
 31
0.0
  0
ENDBLK
  5
6909
  8
0
  0
BLOCK
  8
0
  2
_DOT
 70
     0
 10
0.0
 20
0.0
 30
0.0
  3
_DOT
  1

  0
POLYLINE
  5
4096
  8
AOFF---
 62
     0
 66
     1
 10
0.0
 20
0.0
 30
0.0
 70
     1
 40
0.5
 41
0.5
  0
VERTEX
  5
6962
  8
AOFF---
 62
     0
 10
-0.25
 20
0.0
 30
0.0
 42
1.0
  0
VERTEX
  5
6963
  8
AOFF---
 62
     0
 10
0.25
 20
0.0
 30
0.0
 42
1.0
  0
SEQEND
  5
6964
  8
AOFF---
 62
     0
  0
LINE
  5
4097
  8
AOFF---
 62
     0
 10
-0.5
 20
0.0
 30
0.0
 11
-1.0
 21
0.0
 31
0.0
  0
ENDBLK
  5
690C
  8
0
  0
BLOCK
  8
0
  2
LEXAN
 70
     0
 10
0.0
 20
0.0
 30
0.0
  3
LEXAN
  1

  0
LINE
  5
4D81
  8
0
 10
1422.445143782885
 20
228.9999909743884
 30
0.0
 11
1422.445143782885
 21
127.2917870419182
 31
0.0
  0
LINE
  5
4D82
  8
0
 10
1424.445143782885
 20
1.9999909744175961
 30
0.0
 11
824.44514378288284
 21
1.9999909743884929
 31
0.0
  0
LINE
  5
4D83
  8
0
 10
826.43478355829882
 20
127.2917793751525
 30
0.0
 11
826.43478355830018
 21
228.9999909743886
 31
0.0
  0
CIRCLE
  5
4D84
  8
0
 10
924.44514378288466
 20
141.9999909744175
 30
0.0
 40
14.5
  0
CIRCLE
  5
4D85
  8
0
 10
999.44514378288466
 20
136.99999097441761
 30
0.0
 40
14.5
  0
CIRCLE
  5
4D86
  8
0
 10
1037.445143782885
 20
155.99999097441761
 30
0.0
 40
14.5
  0
CIRCLE
  5
4D87
  8
0
 10
1079.445143782885
 20
152.99999097441761
 30
0.0
 40
14.5
  0
CIRCLE
  5
4D88
  8
0
 10
999.44514378288466
 20
91.999990974417585
 30
0.0
 40
14.5
  0
CIRCLE
  5
4D89
  8
0
 10
1037.445143782885
 20
110.9999909744176
 30
0.0
 40
14.5
  0
CIRCLE
  5
4D8A
  8
0
 10
1079.445143782885
 20
107.9999909744176
 30
0.0
 40
14.5
  0
CIRCLE
  5
4D8B
  8
0
 10
1189.445143782885
 20
141.99999097441031
 30
0.0
 40
14.5
  0
CIRCLE
  5
4D8C
  8
0
 10
1264.445143782885
 20
136.99999097441031
 30
0.0
 40
14.5
  0
CIRCLE
  5
4D8D
  8
0
 10
1302.445143782885
 20
155.99999097441031
 30
0.0
 40
14.5
  0
CIRCLE
  5
4D8E
  8
0
 10
1344.445143782885
 20
152.99999097441031
 30
0.0
 40
14.5
  0
CIRCLE
  5
4D8F
  8
0
 10
1264.445143782885
 20
91.999990974410309
 30
0.0
 40
14.5
  0
CIRCLE
  5
4D90
  8
0
 10
1302.445143782885
 20
110.9999909744103
 30
0.0
 40
14.5
  0
CIRCLE
  5
4D91
  8
0
 10
1344.445143782885
 20
107.9999909744103
 30
0.0
 40
14.5
  0
CIRCLE
  5
4D92
  8
0
 10
1104.445143782885
 20
206.99999097438121
 30
0.0
 40
14.5
  0
CIRCLE
  5
4D93
  8
0
 10
1144.445143782885
 20
206.99999097438121
 30
0.0
 40
14.5
  0
CIRCLE
  5
4D94
  8
0
 10
960.14877633785568
 20
46.679082387682861
 30
0.0
 40
14.5
  0
CIRCLE
  5
4D95
  8
0
 10
1000.148776337855
 20
46.679082387682861
 30
0.0
 40
14.5
  0
CIRCLE
  5
4D96
  8
0
 10
1224.445143782885
 20
46.999990974410323
 30
0.0
 40
14.5
  0
CIRCLE
  5
4D97
  8
0
 10
1264.445143782885
 20
46.999990974410323
 30
0.0
 40
14.5
  0
LINE
  5
4D98
  8
0
 10
1429.445143782885
 20
120.2917870419182
 30
0.0
 11
1429.445143782885
 21
6.9999909744175959
 31
0.0
  0
LINE
  5
4D99
  8
0
 10
1424.445143782877
 20
1.999990974417595
 30
0.0
 11
1424.445143782885
 21
1.9999909744175961
 31
0.0
  0
ARC
  5
4D9A
  8
0
 10
1424.445143782885
 20
6.9999909744175959
 30
0.0
 40
5.0
 50
269.99999999991672
 51
0.0
  0
LINE
  5
4D9B
  8
0
 10
824.44514378288284
 20
1.9999909743884929
 30
0.0
 11
824.44514378288284
 21
1.9999909743884929
 31
0.0
  0
LINE
  5
4D9C
  8
0
 10
819.44514378288295
 20
6.999990974388492
 30
0.0
 11
819.44514378288295
 21
120.29178704188919
 31
0.0
  0
ARC
  5
4D9D
  8
0
 10
824.44514378288284
 20
6.999990974388492
 30
0.0
 40
5.0
 50
180.0
 51
270.0
  0
CIRCLE
  5
4D9E
  8
0
 10
1412.445143782885
 20
51.999990974417607
 30
0.0
 40
3.5
  0
CIRCLE
  5
4D9F
  8
0
 10
1412.445143782885
 20
184.99999097438851
 30
0.0
 40
3.5
  0
CIRCLE
  5
4DA0
  8
0
 10
836.44514378288295
 20
184.99999097438851
 30
0.0
 40
3.5
  0
CIRCLE
  5
4DA1
  8
0
 10
836.44514378288125
 20
51.99999097439165
 30
0.0
 40
3.5
  0
ARC
  5
4DA2
  8
0
 10
1427.445143782885
 20
120.2917870419182
 30
0.0
 40
2.0
 50
0.0
 51
90.0
  0
ARC
  5
4DA3
  8
0
 10
1427.445143782885
 20
127.2917870419182
 30
0.0
 40
5.0
 50
180.0
 51
270.0
  0
ARC
  5
4DA4
  8
0
 10
821.44514378288295
 20
120.29178704188919
 30
0.0
 40
2.0
 50
90.084799622885299
 51
180.0
  0
ARC
  5
4DA5
  8
0
 10
821.4347835582987
 20
127.2917793751526
 30
0.0
 40
5.0
 50
270.08479962288533
 51
359.9999999999992
  0
LINE
  5
4DA6
  8
0
 10
831.4347835583003
 20
233.99999097438851
 30
0.0
 11
1417.445143782885
 21
233.9999909743884
 31
0.0
  0
ARC
  5
4DA7
  8
0
 10
831.4347835583003
 20
228.99999097438851
 30
0.0
 40
5.0
 50
89.999999999999986
 51
179.99999999999909
  0
ARC
  5
4DA8
  8
0
 10
1417.445143782885
 20
228.9999909743884
 30
0.0
 40
5.0
 50
0.0
 51
90.0
  0
ENDBLK
  5
690F
  8
0
  0
BLOCK
  8
0
  2
RUSTFRI_2MM
 70
     0
 10
0.0
 20
0.0
 30
0.0
  3
RUSTFRI_2MM
  1

  0
LINE
  5
4DAA
  8
0
 10
603.00000000000171
 20
233.0
 30
0.0
 11
603.00000000000171
 21
125.2917960675298
 31
0.0
  0
LINE
  5
4DAB
  8
0
 10
605.00000000000171
 20
0.0000000000291038
 30
0.0
 11
5.0
 21
0.0
 31
0.0
  0
LINE
  5
4DAC
  8
0
 10
6.9999999999982681
 20
125.2917960675006
 30
0.0
 11
7.0
 21
233.0
 31
0.0
  0
CIRCLE
  5
4DAD
  8
0
 10
105.0000000000018
 20
140.00000000002899
 30
0.0
 40
14.5
  0
CIRCLE
  5
4DAE
  8
0
 10
180.00000000000179
 20
135.00000000002899
 30
0.0
 40
14.5
  0
CIRCLE
  5
4DAF
  8
0
 10
218.00000000000179
 20
154.00000000002899
 30
0.0
 40
14.5
  0
CIRCLE
  5
4DB0
  8
0
 10
260.00000000000182
 20
151.0000000000291
 30
0.0
 40
14.5
  0
CIRCLE
  5
4DB1
  8
0
 10
180.00000000000179
 20
90.00000000002909
 30
0.0
 40
14.5
  0
CIRCLE
  5
4DB2
  8
0
 10
218.00000000000179
 20
109.0000000000291
 30
0.0
 40
14.5
  0
CIRCLE
  5
4DB3
  8
0
 10
260.00000000000182
 20
106.0000000000291
 30
0.0
 40
14.5
  0
CIRCLE
  5
4DB4
  8
0
 10
370.00000000000182
 20
140.0000000000218
 30
0.0
 40
14.5
  0
CIRCLE
  5
4DB5
  8
0
 10
445.00000000000171
 20
135.0000000000218
 30
0.0
 40
14.5
  0
CIRCLE
  5
4DB6
  8
0
 10
483.00000000000182
 20
154.0000000000218
 30
0.0
 40
14.5
  0
CIRCLE
  5
4DB7
  8
0
 10
525.00000000000182
 20
151.0000000000218
 30
0.0
 40
14.5
  0
CIRCLE
  5
4DB8
  8
0
 10
445.00000000000171
 20
90.000000000021814
 30
0.0
 40
14.5
  0
CIRCLE
  5
4DB9
  8
0
 10
483.00000000000182
 20
109.0000000000218
 30
0.0
 40
14.5
  0
CIRCLE
  5
4DBA
  8
0
 10
525.00000000000182
 20
106.0000000000218
 30
0.0
 40
14.5
  0
CIRCLE
  5
4DBB
  8
0
 10
285.00000000000182
 20
204.99999999999261
 30
0.0
 40
14.5
  0
CIRCLE
  5
4DBC
  8
0
 10
325.00000000000182
 20
204.99999999999261
 30
0.0
 40
14.5
  0
CIRCLE
  5
4DBD
  8
0
 10
140.7036325549725
 20
44.679091413294358
 30
0.0
 40
14.5
  0
CIRCLE
  5
4DBE
  8
0
 10
180.7036325549725
 20
44.679091413294358
 30
0.0
 40
14.5
  0
CIRCLE
  5
4DBF
  8
0
 10
405.00000000000182
 20
45.000000000021828
 30
0.0
 40
14.5
  0
CIRCLE
  5
4DC0
  8
0
 10
445.00000000000171
 20
45.000000000021828
 30
0.0
 40
14.5
  0
LINE
  5
4DC1
  8
0
 10
610.00000000000171
 20
118.2917960675297
 30
0.0
 11
610.00000000000171
 21
2.0000000000247371
 31
0.0
  0
LINE
  5
4DC2
  8
0
 10
607.99999999999875
 20
0.0000000000247384
 30
0.0
 11
605.00000000000171
 21
0.0000000000291038
 31
0.0
  0
ARC
  5
4DC3
  8
0
 10
608.00000000000159
 20
2.0000000000247371
 30
0.0
 40
2.0
 50
269.99999999991672
 51
0.0
  0
LINE
  5
4DC4
  8
0
 10
5.0
 20
0.0
 30
0.0
 11
2.0
 21
0.0
 31
0.0
  0
LINE
  5
4DC5
  8
0
 10
0.0
 20
2.0
 30
0.0
 11
0.0
 21
118.2917960675007
 31
0.0
  0
ARC
  5
4DC6
  8
0
 10
2.0
 20
2.0
 30
0.0
 40
2.0
 50
180.0
 51
270.0
  0
LINE
  5
4DC7
  8
0
 10
7.0
 20
233.0
 30
0.0
 11
7.0
 21
283.0
 31
0.0
  0
LINE
  5
4DC8
  8
0
 10
603.00000000000171
 20
282.99999999998539
 30
0.0
 11
603.00000000000364
 21
233.0
 31
0.0
  0
LINE
  5
4DC9
  8
0
 10
7.0
 20
283.0
 30
0.0
 11
7.0
 21
298.0
 31
0.0
  0
LINE
  5
4DCA
  8
0
 10
7.0
 20
298.0
 30
0.0
 11
603.00000000000171
 21
297.99999999997829
 31
0.0
  0
LINE
  5
4DCB
  8
0
 10
603.00000000000171
 20
297.99999999997817
 30
0.0
 11
603.00000000000171
 21
282.99999999998539
 31
0.0
  0
CIRCLE
  5
4DCC
  8
0
 10
593.00000000000171
 20
50.000000000029097
 30
0.0
 40
3.5
  0
CIRCLE
  5
4DCD
  8
0
 10
593.00000000000171
 20
183.0
 30
0.0
 40
3.5
  0
CIRCLE
  5
4DCE
  8
0
 10
17.0
 20
183.0
 30
0.0
 40
3.5
  0
CIRCLE
  5
4DCF
  8
0
 10
16.999999999998181
 20
50.000000000003148
 30
0.0
 40
3.5
  0
ARC
  5
4DD0
  8
0
 10
608.00000000000159
 20
118.2917960675297
 30
0.0
 40
2.0
 50
0.0
 51
90.0
  0
ARC
  5
4DD1
  8
0
 10
608.00000000000159
 20
125.2917960675297
 30
0.0
 40
5.0
 50
179.99999999999989
 51
270.0
  0
ARC
  5
4DD2
  8
0
 10
2.0
 20
118.2917960675007
 30
0.0
 40
2.0
 50
90.000000000014168
 51
180.0
  0
ARC
  5
4DD3
  8
0
 10
1.9999999999982649
 20
125.2917960675007
 30
0.0
 40
5.0
 50
270.00000000001421
 51
359.99999999999898
  0
ENDBLK
  5
6912
  8
0
  0
BLOCK
  8
0
  2
A$C281642B9
 70
     0
 10
0.0
 20
0.0
 30
0.0
  3
A$C281642B9
  1

  0
CIRCLE
  5
4FBC
  8
0
 10
14.500007559096961
 20
14.499996236173899
 30
0.0
 40
14.5
  0
ENDBLK
  5
6915
  8
0
  0
BLOCK
  8
0
  2
A$C256773B6
 70
     0
 10
0.0
 20
0.0
 30
0.0
  3
A$C256773B6
  1

  0
POLYLINE
  5
540B
  8
0
 66
     1
 10
0.0
 20
0.0
 30
0.0
 70
    64
 71
   266
 72
   528
  0
VERTEX
  5
637A
  8
0
 10
12074.243278665101
 20
-173.00868950458789
 30
114.7576011874045
 70
   192
  0
VERTEX
  5
637B
  8
0
 10
12074.648172016739
 20
-174.00744509325551
 30
114.8424981804902
 70
   192
  0
VERTEX
  5
637C
  8
0
 10
12077.968231255099
 20
-173.00868950463411
 30
117.1718051353659
 70
   192
  0
VERTEX
  5
637D
  8
0
 10
12077.18603736309
 20
-171.0792418663722
 30
117.0077967386536
 70
   192
  0
VERTEX
  5
637E
  8
0
 10
12070.84518464838
 20
-175.07924185597989
 30
113.4880552672893
 70
   192
  0
VERTEX
  5
637F
  8
0
 10
12074.78627361
 20
-175.07924185597989
 30
114.8714549697
 70
   192
  0
VERTEX
  5
6380
  8
0
 10
12078.23502303175
 20
-175.07924185597989
 30
117.2277453520485
 70
   192
  0
VERTEX
  5
6381
  8
0
 10
12073.599186355999
 20
-172.15103863700739
 30
114.622549574206
 70
   192
  0
VERTEX
  5
6382
  8
0
 10
12075.941746568909
 20
-169.42238761726219
 30
116.7468970560026
 70
   192
  0
VERTEX
  5
6383
  8
0
 10
12072.759788915901
 20
-171.49293997984159
 30
114.44654688515659
 70
   192
  0
VERTEX
  5
6384
  8
0
 10
12074.32015523394
 20
-168.15103863637111
 30
116.4068859696395
 70
   192
  0
VERTEX
  5
6385
  8
0
 10
12071.782289893261
 20
-171.07924186904529
 30
114.2415874126645
 70
   192
  0
VERTEX
  5
6386
  8
0
 10
12072.43177212794
 20
-167.35183525579799
 30
116.01093467321989
 70
   192
  0
VERTEX
  5
6387
  8
0
 10
12070.733304231069
 20
-170.93813714721861
 30
114.02163880607731
 70
   192
  0
VERTEX
  5
6388
  8
0
 10
12070.40528743896
 20
-167.0792418652174
 30
115.5860265932712
 70
   192
  0
VERTEX
  5
6389
  8
0
 10
12069.68431856875
 20
-171.07924186797351
 30
113.80169019946111
 70
   192
  0
VERTEX
  5
638A
  8
0
 10
12068.378802749699
 20
-167.3518352537275
 30
115.1611185132667
 70
   192
  0
VERTEX
  5
638B
  8
0
 10
12068.70681954569
 20
-171.4929399777711
 30
113.5967307268841
 70
   192
  0
VERTEX
  5
638C
  8
0
 10
12066.49041964292
 20
-168.1510386323711
 30
114.765167216683
 70
   192
  0
VERTEX
  5
638D
  8
0
 10
12067.86742210497
 20
-172.1510386340791
 30
113.4207280376996
 70
   192
  0
VERTEX
  5
638E
  8
0
 10
12064.868828306709
 20
-169.4223876116053
 30
114.42515613005899
 70
   192
  0
VERTEX
  5
638F
  8
0
 10
12067.22332979503
 20
-173.00868950100161
 30
113.2856764243251
 70
   192
  0
VERTEX
  5
6390
  8
0
 10
12063.62453751091
 20
-171.07924185944401
 30
114.164256447068
 70
   192
  0
VERTEX
  5
6391
  8
0
 10
12066.818436442411
 20
-174.00744508925541
 30
113.20077943103441
 70
   192
  0
VERTEX
  5
6392
  8
0
 10
12062.842343617011
 20
-173.0086894969067
 30
114.00024804995979
 70
   192
  0
VERTEX
  5
6393
  8
0
 10
12066.680334860001
 20
-175.07924185597989
 30
113.17182264762511
 70
   192
  0
VERTEX
  5
6394
  8
0
 10
12062.575551846279
 20
-175.07924185597989
 30
113.94430783996781
 70
   192
  0
VERTEX
  5
6395
  8
0
 10
12066.818436442411
 20
-176.15103862270439
 30
113.20077943103441
 70
   192
  0
VERTEX
  5
6396
  8
0
 10
12062.842343617011
 20
-177.14979421505311
 30
114.00024804995979
 70
   192
  0
VERTEX
  5
6397
  8
0
 10
12067.22332979503
 20
-177.14979421095831
 30
113.2856764243251
 70
   192
  0
VERTEX
  5
6398
  8
0
 10
12063.62453751091
 20
-179.07924185251579
 30
114.164256447068
 70
   192
  0
VERTEX
  5
6399
  8
0
 10
12067.86742210497
 20
-178.0074450778807
 30
113.4207280376996
 70
   192
  0
VERTEX
  5
639A
  8
0
 10
12064.868828306709
 20
-180.73609610035459
 30
114.42515613005899
 70
   192
  0
VERTEX
  5
639B
  8
0
 10
12068.70681954569
 20
-178.66554373418879
 30
113.5967307268841
 70
   192
  0
VERTEX
  5
639C
  8
0
 10
12066.49041964292
 20
-182.00744507958879
 30
114.765167216683
 70
   192
  0
VERTEX
  5
639D
  8
0
 10
12069.68431856875
 20
-179.07924184398641
 30
113.80169019946111
 70
   192
  0
VERTEX
  5
639E
  8
0
 10
12068.378802749699
 20
-182.80664845823239
 30
115.1611185132667
 70
   192
  0
VERTEX
  5
639F
  8
0
 10
12070.733304231069
 20
-179.22034656474131
 30
114.02163880607731
 70
   192
  0
VERTEX
  5
63A0
  8
0
 10
12070.40528743896
 20
-183.07924184674241
 30
115.5860265932712
 70
   192
  0
VERTEX
  5
63A1
  8
0
 10
12071.782289893261
 20
-179.07924184291451
 30
114.2415874126645
 70
   192
  0
VERTEX
  5
63A2
  8
0
 10
12072.43177212794
 20
-182.80664845616189
 30
116.01093467321989
 70
   192
  0
VERTEX
  5
63A3
  8
0
 10
12072.759788915901
 20
-178.66554373211829
 30
114.44654688515659
 70
   192
  0
VERTEX
  5
63A4
  8
0
 10
12074.32015523394
 20
-182.00744507558881
 30
116.4068859696395
 70
   192
  0
VERTEX
  5
63A5
  8
0
 10
12073.599186355999
 20
-178.0074450749525
 30
114.622549574206
 70
   192
  0
VERTEX
  5
63A6
  8
0
 10
12075.941746568909
 20
-180.7360960946977
 30
116.7468970560026
 70
   192
  0
VERTEX
  5
63A7
  8
0
 10
12074.243278665101
 20
-177.149794207372
 30
114.7576011874045
 70
   192
  0
VERTEX
  5
63A8
  8
0
 10
12077.18603736309
 20
-179.07924184558769
 30
117.0077967386536
 70
   192
  0
VERTEX
  5
63A9
  8
0
 10
12074.648172016739
 20
-176.1510386187044
 30
114.8424981804902
 70
   192
  0
VERTEX
  5
63AA
  8
0
 10
12077.968231255099
 20
-177.14979420732581
 30
117.1718051353659
 70
   192
  0
VERTEX
  5
63AB
  8
0
 10
12080.579105797629
 20
-172.15103863718599
 30
120.3172377089308
 70
   192
  0
VERTEX
  5
63AC
  8
0
 10
12079.47291658641
 20
-169.42238761748089
 30
120.0852948098054
 70
   192
  0
VERTEX
  5
63AD
  8
0
 10
12080.956406339879
 20
-175.07924185597989
 30
120.39634911873171
 70
   192
  0
VERTEX
  5
63AE
  8
0
 10
12077.71322366859
 20
-167.0792418659799
 30
119.7163269399399
 70
   192
  0
VERTEX
  5
63AF
  8
0
 10
12075.41994720856
 20
-165.2812828935173
 30
119.2354786499332
 70
   192
  0
VERTEX
  5
63B0
  8
0
 10
12072.74937020735
 20
-164.15103863287661
 30
118.6755189561307
 70
   192
  0
VERTEX
  5
63B1
  8
0
 10
12069.883488074371
 20
-163.76553336265201
 30
118.0746081863121
 70
   192
  0
VERTEX
  5
63B2
  8
0
 10
12067.01760594101
 20
-164.1510386299484
 30
117.4736974164143
 70
   192
  0
VERTEX
  5
63B3
  8
0
 10
12064.34702893869
 20
-165.28128288786061
 30
116.91373772237981
 70
   192
  0
VERTEX
  5
63B4
  8
0
 10
12062.053752476901
 20
-167.07924185797989
 30
116.4328894320042
 70
   192
  0
VERTEX
  5
63B5
  8
0
 10
12060.294059556791
 20
-169.42238760768299
 30
116.06392156165781
 70
   192
  0
VERTEX
  5
63B6
  8
0
 10
12059.187870342899
 20
-172.15103862625779
 30
115.8319786619725
 70
   192
  0
VERTEX
  5
63B7
  8
0
 10
12058.810569802161
 20
-175.07924185597989
 30
115.752867258268
 70
   192
  0
VERTEX
  5
63B8
  8
0
 10
12059.187870342899
 20
-178.00744508570199
 30
115.8319786619725
 70
   192
  0
VERTEX
  5
63B9
  8
0
 10
12060.294059556791
 20
-180.7360961042769
 30
116.06392156165781
 70
   192
  0
VERTEX
  5
63BA
  8
0
 10
12062.053752476901
 20
-183.07924185397999
 30
116.4328894320042
 70
   192
  0
VERTEX
  5
63BB
  8
0
 10
12064.34702893869
 20
-184.8772008240993
 30
116.91373772237981
 70
   192
  0
VERTEX
  5
63BC
  8
0
 10
12067.01760594101
 20
-186.0074450820114
 30
117.4736974164143
 70
   192
  0
VERTEX
  5
63BD
  8
0
 10
12069.883488074371
 20
-186.39295034930791
 30
118.0746081863121
 70
   192
  0
VERTEX
  5
63BE
  8
0
 10
12072.74937020735
 20
-186.00744507908331
 30
118.6755189561307
 70
   192
  0
VERTEX
  5
63BF
  8
0
 10
12075.41994720856
 20
-184.8772008184425
 30
119.2354786499332
 70
   192
  0
VERTEX
  5
63C0
  8
0
 10
12077.71322366859
 20
-183.07924184597999
 30
119.7163269399399
 70
   192
  0
VERTEX
  5
63C1
  8
0
 10
12079.47291658641
 20
-180.736096094479
 30
120.0852948098054
 70
   192
  0
VERTEX
  5
63C2
  8
0
 10
12080.579105797629
 20
-178.00744507477381
 30
120.3172377089308
 70
   192
  0
VERTEX
  5
63C3
  8
0
 10
12082.302868858689
 20
-171.49293998026681
 30
124.06443986909829
 70
   192
  0
VERTEX
  5
63C4
  8
0
 10
12080.948069295049
 20
-168.15103863703769
 30
123.78036899285139
 70
   192
  0
VERTEX
  5
63C5
  8
0
 10
12082.76496575923
 20
-175.07924185597989
 30
124.1613311594155
 70
   192
  0
VERTEX
  5
63C6
  8
0
 10
12078.79289441806
 20
-165.2812828940813
 30
123.3284774863863
 70
   192
  0
VERTEX
  5
63C7
  8
0
 10
12075.984215834091
 20
-163.07924186290811
 30
122.7395610091021
 70
   192
  0
VERTEX
  5
63C8
  8
0
 10
12072.71344034719
 20
-161.6949810008428
 30
122.0537532457206
 70
   192
  0
VERTEX
  5
63C9
  8
0
 10
12069.203465901721
 20
-161.2228353980955
 30
121.31779086199489
 70
   192
  0
VERTEX
  5
63CA
  8
0
 10
12065.69349145581
 20
-161.69498099725649
 30
120.5818284781722
 70
   192
  0
VERTEX
  5
63CB
  8
0
 10
12062.422715967559
 20
-163.07924185597989
 30
119.89602071450661
 70
   192
  0
VERTEX
  5
63CC
  8
0
 10
12059.614037381431
 20
-165.28128288428331
 30
119.3071042367705
 70
   192
  0
VERTEX
  5
63CD
  8
0
 10
12057.458862501629
 20
-168.1510386250377
 30
118.8552127297165
 70
   192
  0
VERTEX
  5
63CE
  8
0
 10
12056.10406293473
 20
-171.49293996688249
 30
118.5711418527839
 70
   192
  0
VERTEX
  5
63CF
  8
0
 10
12055.64196603233
 20
-175.07924185597989
 30
118.4742505667984
 70
   192
  0
VERTEX
  5
63D0
  8
0
 10
12056.10406293473
 20
-178.66554374507729
 30
118.5711418527839
 70
   192
  0
VERTEX
  5
63D1
  8
0
 10
12057.458862501629
 20
-182.00744508692219
 30
118.8552127297165
 70
   192
  0
VERTEX
  5
63D2
  8
0
 10
12059.614037381431
 20
-184.8772008276766
 30
119.3071042367705
 70
   192
  0
VERTEX
  5
63D3
  8
0
 10
12062.422715967559
 20
-187.07924185598
 30
119.89602071450661
 70
   192
  0
VERTEX
  5
63D4
  8
0
 10
12065.69349145581
 20
-188.4635027147034
 30
120.5818284781722
 70
   192
  0
VERTEX
  5
63D5
  8
0
 10
12069.203465901721
 20
-188.93564831386439
 30
121.31779086199489
 70
   192
  0
VERTEX
  5
63D6
  8
0
 10
12072.71344034719
 20
-188.46350271111709
 30
122.0537532457206
 70
   192
  0
VERTEX
  5
63D7
  8
0
 10
12075.984215834091
 20
-187.07924184905181
 30
122.7395610091021
 70
   192
  0
VERTEX
  5
63D8
  8
0
 10
12078.79289441806
 20
-184.87720081787859
 30
123.3284774863863
 70
   192
  0
VERTEX
  5
63D9
  8
0
 10
12080.948069295049
 20
-182.00744507492209
 30
123.78036899285139
 70
   192
  0
VERTEX
  5
63DA
  8
0
 10
12082.302868858689
 20
-178.66554373169299
 30
124.06443986909829
 70
   192
  0
VERTEX
  5
63DB
  8
0
 10
12083.02204883418
 20
-171.07924186984269
 30
128.15804598087391
 70
   192
  0
VERTEX
  5
63DC
  8
0
 10
12081.51096626958
 20
-167.35183525716599
 30
127.841206088297
 70
   192
  0
VERTEX
  5
63DD
  8
0
 10
12083.53745095416
 20
-175.07924185597989
 30
128.26611416995419
 70
   192
  0
VERTEX
  5
63DE
  8
0
 10
12079.107181039881
 20
-164.15103863438861
 30
127.3371866046509
 70
   192
  0
VERTEX
  5
63DF
  8
0
 10
12075.97450713615
 20
-161.6949810019243
 30
126.6803356248364
 70
   192
  0
VERTEX
  5
63E0
  8
0
 10
12072.326431108069
 20
-160.15103862870441
 30
125.91541645765859
 70
   192
  0
VERTEX
  5
63E1
  8
0
 10
12068.411563308389
 20
-159.624428636045
 30
125.0945570803048
 70
   192
  0
VERTEX
  5
63E2
  8
0
 10
12064.496695508191
 20
-160.1510386247044
 30
124.27369770284299
 70
   192
  0
VERTEX
  5
63E3
  8
0
 10
12060.848619478589
 20
-161.6949809941969
 30
123.5087785353483
 70
   192
  0
VERTEX
  5
63E4
  8
0
 10
12057.71594557246
 20
-164.15103862346041
 30
122.8519275550298
 70
   192
  0
VERTEX
  5
63E5
  8
0
 10
12055.31216033963
 20
-167.35183524378169
 30
122.3479080707269
 70
   192
  0
VERTEX
  5
63E6
  8
0
 10
12053.801077771381
 20
-171.0792418549145
 30
122.031068177385
 70
   192
  0
VERTEX
  5
63E7
  8
0
 10
12053.28567564763
 20
-175.07924185597989
 30
121.92299999014649
 70
   192
  0
VERTEX
  5
63E8
  8
0
 10
12053.801077771381
 20
-179.0792418570453
 30
122.031068177385
 70
   192
  0
VERTEX
  5
63E9
  8
0
 10
12055.31216033963
 20
-182.80664846817811
 30
122.3479080707269
 70
   192
  0
VERTEX
  5
63EA
  8
0
 10
12057.71594557246
 20
-186.00744508849951
 30
122.8519275550298
 70
   192
  0
VERTEX
  5
63EB
  8
0
 10
12060.848619478589
 20
-188.46350271776299
 30
123.5087785353483
 70
   192
  0
VERTEX
  5
63EC
  8
0
 10
12064.496695508191
 20
-190.00744508725549
 30
124.27369770284299
 70
   192
  0
VERTEX
  5
63ED
  8
0
 10
12068.411563308389
 20
-190.53405507591489
 30
125.0945570803048
 70
   192
  0
VERTEX
  5
63EE
  8
0
 10
12072.326431108069
 20
-190.0074450832555
 30
125.91541645765859
 70
   192
  0
VERTEX
  5
63EF
  8
0
 10
12075.97450713615
 20
-188.46350271003561
 30
126.6803356248364
 70
   192
  0
VERTEX
  5
63F0
  8
0
 10
12079.107181039881
 20
-186.0074450775713
 30
127.3371866046509
 70
   192
  0
VERTEX
  5
63F1
  8
0
 10
12081.51096626958
 20
-182.8066484547939
 30
127.841206088297
 70
   192
  0
VERTEX
  5
63F2
  8
0
 10
12083.02204883418
 20
-179.07924184211711
 30
128.15804598087391
 70
   192
  0
VERTEX
  5
63F3
  8
0
 10
12082.68763479721
 20
-170.93813714850651
 30
132.31908355239099
 70
   192
  0
VERTEX
  5
63F4
  8
0
 10
12081.123247011379
 20
-167.07924186752689
 30
131.99106675858781
 70
   192
  0
VERTEX
  5
63F5
  8
0
 10
12083.221218335229
 20
-175.07924185597989
 30
132.43096397165439
 70
   192
  0
VERTEX
  5
63F6
  8
0
 10
12078.634665420141
 20
-163.76553336548039
 30
131.46926739268321
 70
   192
  0
VERTEX
  5
63F7
  8
0
 10
12075.391482746471
 20
-161.22283540076219
 30
130.78924521917179
 70
   192
  0
VERTEX
  5
63F8
  8
0
 10
12071.61471653011
 20
-159.62442863777039
 30
129.9973426254181
 70
   192
  0
VERTEX
  5
63F9
  8
0
 10
12067.561747147451
 20
-159.0792418559798
 30
129.1475264645396
 70
   192
  0
VERTEX
  5
63FA
  8
0
 10
12063.508777764269
 20
-159.62442863362929
 30
128.29771030354911
 70
   192
  0
VERTEX
  5
63FB
  8
0
 10
12059.732011546341
 20
-161.22283539276219
 30
127.5058077094674
 70
   192
  0
VERTEX
  5
63FC
  8
0
 10
12056.48882887018
 20
-163.76553335416659
 30
126.82578553543421
 70
   192
  0
VERTEX
  5
63FD
  8
0
 10
12054.000247275701
 20
-167.07924185367051
 30
126.3039861688496
 70
   192
  0
VERTEX
  5
63FE
  8
0
 10
12052.435859486101
 20
-170.9381371330517
 30
125.9759693742544
 70
   192
  0
VERTEX
  5
63FF
  8
0
 10
12051.902275944019
 20
-175.07924185597989
 30
125.86408895414129
 70
   192
  0
VERTEX
  5
6400
  8
0
 10
12052.435859486101
 20
-179.22034657890819
 30
125.9759693742544
 70
   192
  0
VERTEX
  5
6401
  8
0
 10
12054.000247275701
 20
-183.07924185828941
 30
126.3039861688496
 70
   192
  0
VERTEX
  5
6402
  8
0
 10
12056.48882887018
 20
-186.39295035779321
 30
126.82578553543421
 70
   192
  0
VERTEX
  5
6403
  8
0
 10
12059.732011546341
 20
-188.9356483191977
 30
127.5058077094674
 70
   192
  0
VERTEX
  5
6404
  8
0
 10
12063.508777764269
 20
-190.5340550783306
 30
128.29771030354911
 70
   192
  0
VERTEX
  5
6405
  8
0
 10
12067.561747147451
 20
-191.07924185598
 30
129.1475264645396
 70
   192
  0
VERTEX
  5
6406
  8
0
 10
12071.61471653011
 20
-190.5340550741895
 30
129.9973426254181
 70
   192
  0
VERTEX
  5
6407
  8
0
 10
12075.391482746471
 20
-188.9356483111977
 30
130.78924521917179
 70
   192
  0
VERTEX
  5
6408
  8
0
 10
12078.634665420141
 20
-186.39295034647949
 30
131.46926739268321
 70
   192
  0
VERTEX
  5
6409
  8
0
 10
12081.123247011379
 20
-183.079241844433
 30
131.99106675858781
 70
   192
  0
VERTEX
  5
640A
  8
0
 10
12082.68763479721
 20
-179.2203465634534
 30
132.31908355239099
 70
   192
  0
VERTEX
  5
640B
  8
0
 10
12081.322416511781
 20
-171.07924186984269
 30
136.2639847492315
 70
   192
  0
VERTEX
  5
640C
  8
0
 10
12079.81133394718
 20
-167.35183525716599
 30
135.9471448566546
 70
   192
  0
VERTEX
  5
640D
  8
0
 10
12081.837818632819
 20
-175.07924185597989
 30
136.37205293326991
 70
   192
  0
VERTEX
  5
640E
  8
0
 10
12077.40754871749
 20
-164.15103863438861
 30
135.44312537300851
 70
   192
  0
VERTEX
  5
640F
  8
0
 10
12074.27487481376
 20
-161.6949810019243
 30
134.78627439319399
 70
   192
  0
VERTEX
  5
6410
  8
0
 10
12070.626798785681
 20
-160.15103862870441
 30
134.0213552260162
 70
   192
  0
VERTEX
  5
6411
  8
0
 10
12066.71193098599
 20
-159.624428636045
 30
133.2004958486624
 70
   192
  0
VERTEX
  5
6412
  8
0
 10
12062.79706318579
 20
-160.1510386247044
 30
132.3796364712006
 70
   192
  0
VERTEX
  5
6413
  8
0
 10
12059.148987156201
 20
-161.6949809941969
 30
131.6147173037059
 70
   192
  0
VERTEX
  5
6414
  8
0
 10
12056.01631325006
 20
-164.15103862346041
 30
130.95786632338741
 70
   192
  0
VERTEX
  5
6415
  8
0
 10
12053.612528017229
 20
-167.35183524378169
 30
130.45384683908449
 70
   192
  0
VERTEX
  5
6416
  8
0
 10
12052.10144544899
 20
-171.0792418549145
 30
130.1370069457426
 70
   192
  0
VERTEX
  5
6417
  8
0
 10
12051.586043325229
 20
-175.07924185597989
 30
130.0289387585041
 70
   192
  0
VERTEX
  5
6418
  8
0
 10
12052.10144544899
 20
-179.0792418570453
 30
130.1370069457426
 70
   192
  0
VERTEX
  5
6419
  8
0
 10
12053.612528017229
 20
-182.80664846817811
 30
130.45384683908449
 70
   192
  0
VERTEX
  5
641A
  8
0
 10
12056.01631325006
 20
-186.00744508849951
 30
130.95786632338741
 70
   192
  0
VERTEX
  5
641B
  8
0
 10
12059.148987156201
 20
-188.46350271776299
 30
131.6147173037059
 70
   192
  0
VERTEX
  5
641C
  8
0
 10
12062.79706318579
 20
-190.00744508725549
 30
132.3796364712006
 70
   192
  0
VERTEX
  5
641D
  8
0
 10
12066.71193098599
 20
-190.53405507591489
 30
133.2004958486624
 70
   192
  0
VERTEX
  5
641E
  8
0
 10
12070.626798785681
 20
-190.0074450832555
 30
134.0213552260162
 70
   192
  0
VERTEX
  5
641F
  8
0
 10
12074.27487481376
 20
-188.46350271003561
 30
134.78627439319399
 70
   192
  0
VERTEX
  5
6420
  8
0
 10
12077.40754871749
 20
-186.0074450775713
 30
135.4431253730086
 70
   192
  0
VERTEX
  5
6421
  8
0
 10
12079.81133394718
 20
-182.8066484547939
 30
135.9471448566546
 70
   192
  0
VERTEX
  5
6422
  8
0
 10
12081.322416511781
 20
-179.07924184211711
 30
136.2639847492315
 70
   192
  0
VERTEX
  5
6423
  8
0
 10
12079.019431348041
 20
-171.49293998026681
 30
139.72391107374779
 70
   192
  0
VERTEX
  5
6424
  8
0
 10
12077.664631784401
 20
-168.15103863703769
 30
139.4398401975009
 70
   192
  0
VERTEX
  5
6425
  8
0
 10
12079.481528250481
 20
-175.07924185597989
 30
139.820802355024
 70
   192
  0
VERTEX
  5
6426
  8
0
 10
12075.50945690741
 20
-165.2812828940813
 30
138.98794869103591
 70
   192
  0
VERTEX
  5
6427
  8
0
 10
12072.70077832344
 20
-163.07924186290811
 30
138.39903221375161
 70
   192
  0
VERTEX
  5
6428
  8
0
 10
12069.43000283654
 20
-161.6949810008428
 30
137.71322445037009
 70
   192
  0
VERTEX
  5
6429
  8
0
 10
12065.92002839108
 20
-161.2228353980955
 30
136.97726206664441
 70
   192
  0
VERTEX
  5
642A
  8
0
 10
12062.410053945159
 20
-161.69498099725649
 30
136.2412996828217
 70
   192
  0
VERTEX
  5
642B
  8
0
 10
12059.139278456911
 20
-163.07924185597989
 30
135.55549191915611
 70
   192
  0
VERTEX
  5
642C
  8
0
 10
12056.33059987078
 20
-165.28128288428331
 30
134.96657544141999
 70
   192
  0
VERTEX
  5
642D
  8
0
 10
12054.175424990981
 20
-168.1510386250377
 30
134.51468393436599
 70
   192
  0
VERTEX
  5
642E
  8
0
 10
12052.82062542407
 20
-171.49293996688249
 30
134.2306130574334
 70
   192
  0
VERTEX
  5
642F
  8
0
 10
12052.35852852168
 20
-175.07924185597989
 30
134.13372177144791
 70
   192
  0
VERTEX
  5
6430
  8
0
 10
12052.82062542407
 20
-178.66554374507729
 30
134.2306130574334
 70
   192
  0
VERTEX
  5
6431
  8
0
 10
12054.175424990981
 20
-182.00744508692219
 30
134.51468393436599
 70
   192
  0
VERTEX
  5
6432
  8
0
 10
12056.33059987078
 20
-184.8772008276766
 30
134.96657544141999
 70
   192
  0
VERTEX
  5
6433
  8
0
 10
12059.139278456911
 20
-187.07924185598
 30
135.55549191915611
 70
   192
  0
VERTEX
  5
6434
  8
0
 10
12062.410053945159
 20
-188.4635027147034
 30
136.2412996828217
 70
   192
  0
VERTEX
  5
6435
  8
0
 10
12065.92002839108
 20
-188.93564831386439
 30
136.97726206664441
 70
   192
  0
VERTEX
  5
6436
  8
0
 10
12069.43000283654
 20
-188.46350271111709
 30
137.71322445037009
 70
   192
  0
VERTEX
  5
6437
  8
0
 10
12072.70077832344
 20
-187.07924184905181
 30
138.39903221375161
 70
   192
  0
VERTEX
  5
6438
  8
0
 10
12075.50945690741
 20
-184.87720081787859
 30
138.98794869103591
 70
   192
  0
VERTEX
  5
6439
  8
0
 10
12077.664631784401
 20
-182.00744507492209
 30
139.4398401975009
 70
   192
  0
VERTEX
  5
643A
  8
0
 10
12079.019431348041
 20
-178.66554373169299
 30
139.72391107374779
 70
   192
  0
VERTEX
  5
643B
  8
0
 10
12075.93562393922
 20
-172.15103863718599
 30
142.46307426442411
 70
   192
  0
VERTEX
  5
643C
  8
0
 10
12074.829434728001
 20
-169.42238761748089
 30
142.23113136529881
 70
   192
  0
VERTEX
  5
643D
  8
0
 10
12076.312924483789
 20
-175.07924185597989
 30
142.54218566315211
 70
   192
  0
VERTEX
  5
643E
  8
0
 10
12073.069741810181
 20
-167.0792418659799
 30
141.86216349543321
 70
   192
  0
VERTEX
  5
643F
  8
0
 10
12070.776465350151
 20
-165.2812828935173
 30
141.38131520542649
 70
   192
  0
VERTEX
  5
6440
  8
0
 10
12068.10588834894
 20
-164.15103863287661
 30
140.82135551162401
 70
   192
  0
VERTEX
  5
6441
  8
0
 10
12065.24000621596
 20
-163.76553336265201
 30
140.22044474180541
 70
   192
  0
VERTEX
  5
6442
  8
0
 10
12062.3741240826
 20
-164.1510386299484
 30
139.6195339719076
 70
   192
  0
VERTEX
  5
6443
  8
0
 10
12059.70354708028
 20
-165.28128288786061
 30
139.05957427787311
 70
   192
  0
VERTEX
  5
6444
  8
0
 10
12057.410270618489
 20
-167.07924185797989
 30
138.57872598749751
 70
   192
  0
VERTEX
  5
6445
  8
0
 10
12055.650577698379
 20
-169.42238760768299
 30
138.2097581171511
 70
   192
  0
VERTEX
  5
6446
  8
0
 10
12054.54438848449
 20
-172.15103862625779
 30
137.9778152174658
 70
   192
  0
VERTEX
  5
6447
  8
0
 10
12054.16708794375
 20
-175.07924185597989
 30
137.8987038137613
 70
   192
  0
VERTEX
  5
6448
  8
0
 10
12054.54438848449
 20
-178.00744508570199
 30
137.9778152174658
 70
   192
  0
VERTEX
  5
6449
  8
0
 10
12055.650577698379
 20
-180.7360961042769
 30
138.2097581171511
 70
   192
  0
VERTEX
  5
644A
  8
0
 10
12057.410270618489
 20
-183.07924185397999
 30
138.57872598749751
 70
   192
  0
VERTEX
  5
644B
  8
0
 10
12059.70354708028
 20
-184.8772008240993
 30
139.05957427787311
 70
   192
  0
VERTEX
  5
644C
  8
0
 10
12062.3741240826
 20
-186.0074450820114
 30
139.6195339719076
 70
   192
  0
VERTEX
  5
644D
  8
0
 10
12065.24000621596
 20
-186.39295034930791
 30
140.22044474180541
 70
   192
  0
VERTEX
  5
644E
  8
0
 10
12068.10588834894
 20
-186.00744507908331
 30
140.82135551162401
 70
   192
  0
VERTEX
  5
644F
  8
0
 10
12070.776465350151
 20
-184.8772008184425
 30
141.38131520542649
 70
   192
  0
VERTEX
  5
6450
  8
0
 10
12073.069741810181
 20
-183.07924184597999
 30
141.86216349543321
 70
   192
  0
VERTEX
  5
6451
  8
0
 10
12074.829434728001
 20
-180.736096094479
 30
142.23113136529881
 70
   192
  0
VERTEX
  5
6452
  8
0
 10
12075.93562393922
 20
-178.00744507477381
 30
142.46307426442411
 70
   192
  0
VERTEX
  5
6453
  8
0
 10
12072.28115066427
 20
-173.00868950463411
 30
144.2948048762608
 70
   192
  0
VERTEX
  5
6454
  8
0
 10
12071.49895677226
 20
-171.0792418663722
 30
144.13079647954859
 70
   192
  0
VERTEX
  5
6455
  8
0
 10
12072.547942443111
 20
-175.07924185597989
 30
144.35074508250381
 70
   192
  0
VERTEX
  5
6456
  8
0
 10
12070.254665978069
 20
-169.42238761726219
 30
143.86989679689751
 70
   192
  0
VERTEX
  5
6457
  8
0
 10
12068.63307464311
 20
-168.15103863637111
 30
143.52988571053439
 70
   192
  0
VERTEX
  5
6458
  8
0
 10
12066.744691537109
 20
-167.35183525579799
 30
143.1339344141148
 70
   192
  0
VERTEX
  5
6459
  8
0
 10
12064.71820684812
 20
-167.0792418652174
 30
142.7090263341662
 70
   192
  0
VERTEX
  5
645A
  8
0
 10
12062.69172215887
 20
-167.3518352537275
 30
142.2841182541616
 70
   192
  0
VERTEX
  5
645B
  8
0
 10
12060.80333905209
 20
-168.1510386323711
 30
141.88816695757791
 70
   192
  0
VERTEX
  5
645C
  8
0
 10
12059.18174771588
 20
-169.4223876116053
 30
141.54815587095399
 70
   192
  0
VERTEX
  5
645D
  8
0
 10
12057.937456920081
 20
-171.07924185944401
 30
141.2872561879629
 70
   192
  0
VERTEX
  5
645E
  8
0
 10
12057.155263026179
 20
-173.0086894969067
 30
141.12324779085469
 70
   192
  0
VERTEX
  5
645F
  8
0
 10
12056.88847125545
 20
-175.07924185597989
 30
141.06730758086269
 70
   192
  0
VERTEX
  5
6460
  8
0
 10
12057.155263026179
 20
-177.14979421505311
 30
141.12324779085469
 70
   192
  0
VERTEX
  5
6461
  8
0
 10
12057.937456920081
 20
-179.07924185251579
 30
141.2872561879629
 70
   192
  0
VERTEX
  5
6462
  8
0
 10
12059.18174771588
 20
-180.73609610035459
 30
141.54815587095399
 70
   192
  0
VERTEX
  5
6463
  8
0
 10
12060.80333905209
 20
-182.00744507958879
 30
141.88816695757791
 70
   192
  0
VERTEX
  5
6464
  8
0
 10
12062.69172215887
 20
-182.80664845823239
 30
142.2841182541616
 70
   192
  0
VERTEX
  5
6465
  8
0
 10
12064.71820684812
 20
-183.07924184674241
 30
142.7090263341662
 70
   192
  0
VERTEX
  5
6466
  8
0
 10
12066.744691537109
 20
-182.80664845616189
 30
143.1339344141148
 70
   192
  0
VERTEX
  5
6467
  8
0
 10
12068.63307464311
 20
-182.00744507558881
 30
143.52988571053439
 70
   192
  0
VERTEX
  5
6468
  8
0
 10
12070.254665978069
 20
-180.7360960946977
 30
143.86989679689751
 70
   192
  0
VERTEX
  5
6469
  8
0
 10
12071.49895677226
 20
-179.07924184558769
 30
144.13079647954859
 70
   192
  0
VERTEX
  5
646A
  8
0
 10
12072.28115066427
 20
-177.14979420732581
 30
144.2948048762608
 70
   192
  0
VERTEX
  5
646B
  8
0
 10
12068.30505783789
 20
-174.00744509325551
 30
145.09427349498119
 70
   192
  0
VERTEX
  5
646C
  8
0
 10
12067.900164486249
 20
-173.00868950458789
 30
145.0093765018955
 70
   192
  0
VERTEX
  5
646D
  8
0
 10
12068.443159432571
 20
-175.07924185597989
 30
145.12323027743611
 70
   192
  0
VERTEX
  5
646E
  8
0
 10
12067.25607217715
 20
-172.15103863700739
 30
144.87432488869689
 70
   192
  0
VERTEX
  5
646F
  8
0
 10
12066.416674737069
 20
-171.49293997984159
 30
144.69832219964761
 70
   192
  0
VERTEX
  5
6470
  8
0
 10
12065.439175714409
 20
-171.07924186904529
 30
144.4933627271555
 70
   192
  0
VERTEX
  5
6471
  8
0
 10
12064.390190052231
 20
-170.93813714721861
 30
144.27341412056819
 70
   192
  0
VERTEX
  5
6472
  8
0
 10
12063.34120438991
 20
-171.07924186797351
 30
144.05346551395209
 70
   192
  0
VERTEX
  5
6473
  8
0
 10
12062.36370536685
 20
-171.4929399777711
 30
143.84850604137509
 70
   192
  0
VERTEX
  5
6474
  8
0
 10
12061.52430792612
 20
-172.1510386340791
 30
143.6725033521906
 70
   192
  0
VERTEX
  5
6475
  8
0
 10
12060.88021561618
 20
-173.00868950100161
 30
143.53745173881609
 70
   192
  0
VERTEX
  5
6476
  8
0
 10
12060.475322263561
 20
-174.00744508925541
 30
143.45255474552539
 70
   192
  0
VERTEX
  5
6477
  8
0
 10
12060.337220681149
 20
-175.07924185597989
 30
143.42359796211611
 70
   192
  0
VERTEX
  5
6478
  8
0
 10
12060.475322263561
 20
-176.15103862270439
 30
143.45255474552539
 70
   192
  0
VERTEX
  5
6479
  8
0
 10
12060.88021561618
 20
-177.14979421095831
 30
143.53745173881609
 70
   192
  0
VERTEX
  5
647A
  8
0
 10
12061.52430792612
 20
-178.0074450778807
 30
143.6725033521906
 70
   192
  0
VERTEX
  5
647B
  8
0
 10
12062.36370536685
 20
-178.66554373418879
 30
143.84850604137509
 70
   192
  0
VERTEX
  5
647C
  8
0
 10
12063.34120438991
 20
-179.07924184398641
 30
144.05346551395209
 70
   192
  0
VERTEX
  5
647D
  8
0
 10
12064.390190052231
 20
-179.22034656474131
 30
144.27341412056819
 70
   192
  0
VERTEX
  5
647E
  8
0
 10
12065.439175714409
 20
-179.07924184291451
 30
144.4933627271555
 70
   192
  0
VERTEX
  5
647F
  8
0
 10
12066.416674737069
 20
-178.66554373211829
 30
144.69832219964761
 70
   192
  0
VERTEX
  5
6480
  8
0
 10
12067.25607217715
 20
-178.0074450749525
 30
144.87432488869689
 70
   192
  0
VERTEX
  5
6481
  8
0
 10
12067.900164486249
 20
-177.149794207372
 30
145.0093765018955
 70
   192
  0
VERTEX
  5
6482
  8
0
 10
12068.30505783789
 20
-176.1510386187044
 30
145.09427349498119
 70
   192
  0
VERTEX
  5
6483
  8
0
 10
12064.27830963087
 20
-175.07924185597989
 30
144.80699765850639
 70
   192
  0
VERTEX
  5
6484
  8
0
 10
0.0
 20
0.0
 30
0.0
 70
   128
 71
    -1
 72
     3
 73
     2
  0
VERTEX
  5
6485
  8
0
 10
0.0
 20
0.0
 30
0.0
 70
   128
 71
     4
 72
    -3
 73
     1
  0
VERTEX
  5
6486
  8
0
 10
0.0
 20
0.0
 30
0.0
 70
   128
 71
     5
 72
     1
 73
     2
  0
VERTEX
  5
6487
  8
0
 10
0.0
 20
0.0
 30
0.0
 70
   128
 71
     6
 72
     5
 73
     2
  0
VERTEX
  5
6488
  8
0
 10
0.0
 20
0.0
 30
0.0
 70
   128
 71
    -3
 72
     6
 73
     2
  0
VERTEX
  5
6489
  8
0
 10
0.0
 20
0.0
 30
0.0
 70
   128
 71
     7
 72
    -6
 73
     3
  0
VERTEX
  5
648A
  8
0
 10
0.0
 20
0.0
 30
0.0
 70
   128
 71
    -8
 72
     4
 73
     1
  0
VERTEX
  5
648B
  8
0
 10
0.0
 20
0.0
 30
0.0
 70
   128
 71
     9
 72
    -4
 73
     8
  0
VERTEX
  5
648C
  8
0
 10
0.0
 20
0.0
 30
0.0
 70
   128
 71
     5
 72
     8
 73
     1
  0
VERTEX
  5
648D
  8
0
 10
0.0
 20
0.0
 30
0.0
 70
   128
 71
   -10
 72
     9
 73
     8
  0
VERTEX
  5
648E
  8
0
 10
0.0
 20
0.0
 30
0.0
 70
   128
 71
    11
 72
    -9
 73
    10
  0
VERTEX
  5
648F
  8
0
 10
0.0
 20
0.0
 30
0.0
 70
   128
 71
     5
 72
    10
 73
     8
  0
VERTEX
  5
6490
  8
0
 10
0.0
 20
0.0
 30
0.0
 70
   128
 71
   -12
 72
    11
 73
    10
  0
VERTEX
  5
6491
  8
0
 10
0.0
 20
0.0
 30
0.0
 70
   128
 71
    13
 72
   -11
 73
    12
  0
VERTEX
  5
6492
  8
0
 10
0.0
 20
0.0
 30
0.0
 70
   128
 71
     5
 72
    12
 73
    10
  0
VERTEX
  5
6493
  8
0
 10
0.0
 20
0.0
 30
0.0
 70
   128
 71
   -14
 72
    13
 73
    12
  0
VERTEX
  5
6494
  8
0
 10
0.0
 20
0.0
 30
0.0
 70
   128
 71
    15
 72
   -13
 73
    14
  0
VERTEX
  5
6495
  8
0
 10
0.0
 20
0.0
 30
0.0
 70
   128
 71
     5
 72
    14
 73
    12
  0
VERTEX
  5
6496
  8
0
 10
0.0
 20
0.0
 30
0.0
 70
   128
 71
   -16
 72
    15
 73
    14
  0
VERTEX
  5
6497
  8
0
 10
0.0
 20
0.0
 30
0.0
 70
   128
 71
    17
 72
   -15
 73
    16
  0
VERTEX
  5
6498
  8
0
 10
0.0
 20
0.0
 30
0.0
 70
   128
 71
     5
 72
    16
 73
    14
  0
VERTEX
  5
6499
  8
0
 10
0.0
 20
0.0
 30
0.0
 70
   128
 71
   -18
 72
    17
 73
    16
  0
VERTEX
  5
649A
  8
0
 10
0.0
 20
0.0
 30
0.0
 70
   128
 71
    19
 72
   -17
 73
    18
  0
VERTEX
  5
649B
  8
0
 10
0.0
 20
0.0
 30
0.0
 70
   128
 71
     5
 72
    18
 73
    16
  0
VERTEX
  5
649C
  8
0
 10
0.0
 20
0.0
 30
0.0
 70
   128
 71
   -20
 72
    19
 73
    18
  0
VERTEX
  5
649D
  8
0
 10
0.0
 20
0.0
 30
0.0
 70
   128
 71
    21
 72
   -19
 73
    20
  0
VERTEX
  5
649E
  8
0
 10
0.0
 20
0.0
 30
0.0
 70
   128
 71
     5
 72
    20
 73
    18
  0
VERTEX
  5
649F
  8
0
 10
0.0
 20
0.0
 30
0.0
 70
   128
 71
   -22
 72
    21
 73
    20
  0
VERTEX
  5
64A0
  8
0
 10
0.0
 20
0.0
 30
0.0
 70
   128
 71
    23
 72
   -21
 73
    22
  0
VERTEX
  5
64A1
  8
0
 10
0.0
 20
0.0
 30
0.0
 70
   128
 71
     5
 72
    22
 73
    20
  0
VERTEX
  5
64A2
  8
0
 10
0.0
 20
0.0
 30
0.0
 70
   128
 71
   -24
 72
    23
 73
    22
  0
VERTEX
  5
64A3
  8
0
 10
0.0
 20
0.0
 30
0.0
 70
   128
 71
    25
 72
   -23
 73
    24
  0
VERTEX
  5
64A4
  8
0
 10
0.0
 20
0.0
 30
0.0
 70
   128
 71
     5
 72
    24
 73
    22
  0
VERTEX
  5
64A5
  8
0
 10
0.0
 20
0.0
 30
0.0
 70
   128
 71
   -26
 72
    25
 73
    24
  0
VERTEX
  5
64A6
  8
0
 10
0.0
 20
0.0
 30
0.0
 70
   128
 71
    27
 72
   -25
 73
    26
  0
VERTEX
  5
64A7
  8
0
 10
0.0
 20
0.0
 30
0.0
 70
   128
 71
     5
 72
    26
 73
    24
  0
VERTEX
  5
64A8
  8
0
 10
0.0
 20
0.0
 30
0.0
 70
   128
 71
   -28
 72
    27
 73
    26
  0
VERTEX
  5
64A9
  8
0
 10
0.0
 20
0.0
 30
0.0
 70
   128
 71
    29
 72
   -27
 73
    28
  0
VERTEX
  5
64AA
  8
0
 10
0.0
 20
0.0
 30
0.0
 70
   128
 71
    26
 72
     5
 73
    28
  0
VERTEX
  5
64AB
  8
0
 10
0.0
 20
0.0
 30
0.0
 70
   128
 71
   -30
 72
    29
 73
    28
  0
VERTEX
  5
64AC
  8
0
 10
0.0
 20
0.0
 30
0.0
 70
   128
 71
    31
 72
   -29
 73
    30
  0
VERTEX
  5
64AD
  8
0
 10
0.0
 20
0.0
 30
0.0
 70
   128
 71
     5
 72
    30
 73
    28
  0
VERTEX
  5
64AE
  8
0
 10
0.0
 20
0.0
 30
0.0
 70
   128
 71
   -32
 72
    31
 73
    30
  0
VERTEX
  5
64AF
  8
0
 10
0.0
 20
0.0
 30
0.0
 70
   128
 71
    33
 72
   -31
 73
    32
  0
VERTEX
  5
64B0
  8
0
 10
0.0
 20
0.0
 30
0.0
 70
   128
 71
     5
 72
    32
 73
    30
  0
VERTEX
  5
64B1
  8
0
 10
0.0
 20
0.0
 30
0.0
 70
   128
 71
   -34
 72
    33
 73
    32
  0
VERTEX
  5
64B2
  8
0
 10
0.0
 20
0.0
 30
0.0
 70
   128
 71
    35
 72
   -33
 73
    34
  0
VERTEX
  5
64B3
  8
0
 10
0.0
 20
0.0
 30
0.0
 70
   128
 71
     5
 72
    34
 73
    32
  0
VERTEX
  5
64B4
  8
0
 10
0.0
 20
0.0
 30
0.0
 70
   128
 71
   -36
 72
    35
 73
    34
  0
VERTEX
  5
64B5
  8
0
 10
0.0
 20
0.0
 30
0.0
 70
   128
 71
    37
 72
   -35
 73
    36
  0
VERTEX
  5
64B6
  8
0
 10
0.0
 20
0.0
 30
0.0
 70
   128
 71
     5
 72
    36
 73
    34
  0
VERTEX
  5
64B7
  8
0
 10
0.0
 20
0.0
 30
0.0
 70
   128
 71
   -38
 72
    37
 73
    36
  0
VERTEX
  5
64B8
  8
0
 10
0.0
 20
0.0
 30
0.0
 70
   128
 71
    39
 72
   -37
 73
    38
  0
VERTEX
  5
64B9
  8
0
 10
0.0
 20
0.0
 30
0.0
 70
   128
 71
     5
 72
    38
 73
    36
  0
VERTEX
  5
64BA
  8
0
 10
0.0
 20
0.0
 30
0.0
 70
   128
 71
   -40
 72
    39
 73
    38
  0
VERTEX
  5
64BB
  8
0
 10
0.0
 20
0.0
 30
0.0
 70
   128
 71
    41
 72
   -39
 73
    40
  0
VERTEX
  5
64BC
  8
0
 10
0.0
 20
0.0
 30
0.0
 70
   128
 71
     5
 72
    40
 73
    38
  0
VERTEX
  5
64BD
  8
0
 10
0.0
 20
0.0
 30
0.0
 70
   128
 71
   -42
 72
    41
 73
    40
  0
VERTEX
  5
64BE
  8
0
 10
0.0
 20
0.0
 30
0.0
 70
   128
 71
    43
 72
   -41
 73
    42
  0
VERTEX
  5
64BF
  8
0
 10
0.0
 20
0.0
 30
0.0
 70
   128
 71
     5
 72
    42
 73
    40
  0
VERTEX
  5
64C0
  8
0
 10
0.0
 20
0.0
 30
0.0
 70
   128
 71
   -44
 72
    43
 73
    42
  0
VERTEX
  5
64C1
  8
0
 10
0.0
 20
0.0
 30
0.0
 70
   128
 71
    45
 72
   -43
 73
    44
  0
VERTEX
  5
64C2
  8
0
 10
0.0
 20
0.0
 30
0.0
 70
   128
 71
     5
 72
    44
 73
    42
  0
VERTEX
  5
64C3
  8
0
 10
0.0
 20
0.0
 30
0.0
 70
   128
 71
   -46
 72
    45
 73
    44
  0
VERTEX
  5
64C4
  8
0
 10
0.0
 20
0.0
 30
0.0
 70
   128
 71
    47
 72
   -45
 73
    46
  0
VERTEX
  5
64C5
  8
0
 10
0.0
 20
0.0
 30
0.0
 70
   128
 71
     5
 72
    46
 73
    44
  0
VERTEX
  5
64C6
  8
0
 10
0.0
 20
0.0
 30
0.0
 70
   128
 71
   -48
 72
    47
 73
    46
  0
VERTEX
  5
64C7
  8
0
 10
0.0
 20
0.0
 30
0.0
 70
   128
 71
    49
 72
   -47
 73
    48
  0
VERTEX
  5
64C8
  8
0
 10
0.0
 20
0.0
 30
0.0
 70
   128
 71
     5
 72
    48
 73
    46
  0
VERTEX
  5
64C9
  8
0
 10
0.0
 20
0.0
 30
0.0
 70
   128
 71
    -6
 72
    49
 73
    48
  0
VERTEX
  5
64CA
  8
0
 10
0.0
 20
0.0
 30
0.0
 70
   128
 71
     7
 72
   -49
 73
     6
  0
VERTEX
  5
64CB
  8
0
 10
0.0
 20
0.0
 30
0.0
 70
   128
 71
     5
 72
     6
 73
    48
  0
VERTEX
  5
64CC
  8
0
 10
0.0
 20
0.0
 30
0.0
 70
   128
 71
    -4
 72
    50
 73
     3
  0
VERTEX
  5
64CD
  8
0
 10
0.0
 20
0.0
 30
0.0
 70
   128
 71
    51
 72
   -50
 73
     4
  0
VERTEX
  5
64CE
  8
0
 10
0.0
 20
0.0
 30
0.0
 70
   128
 71
   -50
 72
     7
 73
     3
  0
VERTEX
  5
64CF
  8
0
 10
0.0
 20
0.0
 30
0.0
 70
   128
 71
    52
 72
    -7
 73
    50
  0
VERTEX
  5
64D0
  8
0
 10
0.0
 20
0.0
 30
0.0
 70
   128
 71
    -9
 72
    51
 73
     4
  0
VERTEX
  5
64D1
  8
0
 10
0.0
 20
0.0
 30
0.0
 70
   128
 71
    53
 72
   -51
 73
     9
  0
VERTEX
  5
64D2
  8
0
 10
0.0
 20
0.0
 30
0.0
 70
   128
 71
   -11
 72
    53
 73
     9
  0
VERTEX
  5
64D3
  8
0
 10
0.0
 20
0.0
 30
0.0
 70
   128
 71
    54
 72
   -53
 73
    11
  0
VERTEX
  5
64D4
  8
0
 10
0.0
 20
0.0
 30
0.0
 70
   128
 71
   -13
 72
    54
 73
    11
  0
VERTEX
  5
64D5
  8
0
 10
0.0
 20
0.0
 30
0.0
 70
   128
 71
    55
 72
   -54
 73
    13
  0
VERTEX
  5
64D6
  8
0
 10
0.0
 20
0.0
 30
0.0
 70
   128
 71
   -15
 72
    55
 73
    13
  0
VERTEX
  5
64D7
  8
0
 10
0.0
 20
0.0
 30
0.0
 70
   128
 71
    56
 72
   -55
 73
    15
  0
VERTEX
  5
64D8
  8
0
 10
0.0
 20
0.0
 30
0.0
 70
   128
 71
   -17
 72
    56
 73
    15
  0
VERTEX
  5
64D9
  8
0
 10
0.0
 20
0.0
 30
0.0
 70
   128
 71
    57
 72
   -56
 73
    17
  0
VERTEX
  5
64DA
  8
0
 10
0.0
 20
0.0
 30
0.0
 70
   128
 71
   -19
 72
    57
 73
    17
  0
VERTEX
  5
64DB
  8
0
 10
0.0
 20
0.0
 30
0.0
 70
   128
 71
    58
 72
   -57
 73
    19
  0
VERTEX
  5
64DC
  8
0
 10
0.0
 20
0.0
 30
0.0
 70
   128
 71
   -21
 72
    58
 73
    19
  0
VERTEX
  5
64DD
  8
0
 10
0.0
 20
0.0
 30
0.0
 70
   128
 71
    59
 72
   -58
 73
    21
  0
VERTEX
  5
64DE
  8
0
 10
0.0
 20
0.0
 30
0.0
 70
   128
 71
   -23
 72
    59
 73
    21
  0
VERTEX
  5
64DF
  8
0
 10
0.0
 20
0.0
 30
0.0
 70
   128
 71
    60
 72
   -59
 73
    23
  0
VERTEX
  5
64E0
  8
0
 10
0.0
 20
0.0
 30
0.0
 70
   128
 71
   -25
 72
    60
 73
    23
  0
VERTEX
  5
64E1
  8
0
 10
0.0
 20
0.0
 30
0.0
 70
   128
 71
    61
 72
   -60
 73
    25
  0
VERTEX
  5
64E2
  8
0
 10
0.0
 20
0.0
 30
0.0
 70
   128
 71
   -27
 72
    61
 73
    25
  0
VERTEX
  5
64E3
  8
0
 10
0.0
 20
0.0
 30
0.0
 70
   128
 71
    62
 72
   -61
 73
    27
  0
VERTEX
  5
64E4
  8
0
 10
0.0
 20
0.0
 30
0.0
 70
   128
 71
   -29
 72
    62
 73
    27
  0
VERTEX
  5
64E5
  8
0
 10
0.0
 20
0.0
 30
0.0
 70
   128
 71
    63
 72
   -62
 73
    29
  0
VERTEX
  5
64E6
  8
0
 10
0.0
 20
0.0
 30
0.0
 70
   128
 71
   -31
 72
    63
 73
    29
  0
VERTEX
  5
64E7
  8
0
 10
0.0
 20
0.0
 30
0.0
 70
   128
 71
    64
 72
   -63
 73
    31
  0
VERTEX
  5
64E8
  8
0
 10
0.0
 20
0.0
 30
0.0
 70
   128
 71
   -33
 72
    64
 73
    31
  0
VERTEX
  5
64E9
  8
0
 10
0.0
 20
0.0
 30
0.0
 70
   128
 71
    65
 72
   -64
 73
    33
  0
VERTEX
  5
64EA
  8
0
 10
0.0
 20
0.0
 30
0.0
 70
   128
 71
   -35
 72
    65
 73
    33
  0
VERTEX
  5
64EB
  8
0
 10
0.0
 20
0.0
 30
0.0
 70
   128
 71
    66
 72
   -65
 73
    35
  0
VERTEX
  5
64EC
  8
0
 10
0.0
 20
0.0
 30
0.0
 70
   128
 71
   -37
 72
    66
 73
    35
  0
VERTEX
  5
64ED
  8
0
 10
0.0
 20
0.0
 30
0.0
 70
   128
 71
    67
 72
   -66
 73
    37
  0
VERTEX
  5
64EE
  8
0
 10
0.0
 20
0.0
 30
0.0
 70
   128
 71
   -39
 72
    67
 73
    37
  0
VERTEX
  5
64EF
  8
0
 10
0.0
 20
0.0
 30
0.0
 70
   128
 71
    68
 72
   -67
 73
    39
  0
VERTEX
  5
64F0
  8
0
 10
0.0
 20
0.0
 30
0.0
 70
   128
 71
   -41
 72
    68
 73
    39
  0
VERTEX
  5
64F1
  8
0
 10
0.0
 20
0.0
 30
0.0
 70
   128
 71
    69
 72
   -68
 73
    41
  0
VERTEX
  5
64F2
  8
0
 10
0.0
 20
0.0
 30
0.0
 70
   128
 71
   -43
 72
    69
 73
    41
  0
VERTEX
  5
64F3
  8
0
 10
0.0
 20
0.0
 30
0.0
 70
   128
 71
    70
 72
   -69
 73
    43
  0
VERTEX
  5
64F4
  8
0
 10
0.0
 20
0.0
 30
0.0
 70
   128
 71
   -45
 72
    70
 73
    43
  0
VERTEX
  5
64F5
  8
0
 10
0.0
 20
0.0
 30
0.0
 70
   128
 71
    71
 72
   -70
 73
    45
  0
VERTEX
  5
64F6
  8
0
 10
0.0
 20
0.0
 30
0.0
 70
   128
 71
   -47
 72
    71
 73
    45
  0
VERTEX
  5
64F7
  8
0
 10
0.0
 20
0.0
 30
0.0
 70
   128
 71
    72
 72
   -71
 73
    47
  0
VERTEX
  5
64F8
  8
0
 10
0.0
 20
0.0
 30
0.0
 70
   128
 71
   -49
 72
    72
 73
    47
  0
VERTEX
  5
64F9
  8
0
 10
0.0
 20
0.0
 30
0.0
 70
   128
 71
    73
 72
   -72
 73
    49
  0
VERTEX
  5
64FA
  8
0
 10
0.0
 20
0.0
 30
0.0
 70
   128
 71
    -7
 72
    73
 73
    49
  0
VERTEX
  5
64FB
  8
0
 10
0.0
 20
0.0
 30
0.0
 70
   128
 71
    52
 72
   -73
 73
     7
  0
VERTEX
  5
64FC
  8
0
 10
0.0
 20
0.0
 30
0.0
 70
   128
 71
   -51
 72
    74
 73
    50
  0
VERTEX
  5
64FD
  8
0
 10
0.0
 20
0.0
 30
0.0
 70
   128
 71
    75
 72
   -74
 73
    51
  0
VERTEX
  5
64FE
  8
0
 10
0.0
 20
0.0
 30
0.0
 70
   128
 71
   -74
 72
    52
 73
    50
  0
VERTEX
  5
64FF
  8
0
 10
0.0
 20
0.0
 30
0.0
 70
   128
 71
    76
 72
   -52
 73
    74
  0
VERTEX
  5
6500
  8
0
 10
0.0
 20
0.0
 30
0.0
 70
   128
 71
   -53
 72
    75
 73
    51
  0
VERTEX
  5
6501
  8
0
 10
0.0
 20
0.0
 30
0.0
 70
   128
 71
    77
 72
   -75
 73
    53
  0
VERTEX
  5
6502
  8
0
 10
0.0
 20
0.0
 30
0.0
 70
   128
 71
   -54
 72
    77
 73
    53
  0
VERTEX
  5
6503
  8
0
 10
0.0
 20
0.0
 30
0.0
 70
   128
 71
    78
 72
   -77
 73
    54
  0
VERTEX
  5
6504
  8
0
 10
0.0
 20
0.0
 30
0.0
 70
   128
 71
   -55
 72
    78
 73
    54
  0
VERTEX
  5
6505
  8
0
 10
0.0
 20
0.0
 30
0.0
 70
   128
 71
    79
 72
   -78
 73
    55
  0
VERTEX
  5
6506
  8
0
 10
0.0
 20
0.0
 30
0.0
 70
   128
 71
   -56
 72
    79
 73
    55
  0
VERTEX
  5
6507
  8
0
 10
0.0
 20
0.0
 30
0.0
 70
   128
 71
    80
 72
   -79
 73
    56
  0
VERTEX
  5
6508
  8
0
 10
0.0
 20
0.0
 30
0.0
 70
   128
 71
   -57
 72
    80
 73
    56
  0
VERTEX
  5
6509
  8
0
 10
0.0
 20
0.0
 30
0.0
 70
   128
 71
    81
 72
   -80
 73
    57
  0
VERTEX
  5
650A
  8
0
 10
0.0
 20
0.0
 30
0.0
 70
   128
 71
   -58
 72
    81
 73
    57
  0
VERTEX
  5
650B
  8
0
 10
0.0
 20
0.0
 30
0.0
 70
   128
 71
    82
 72
   -81
 73
    58
  0
VERTEX
  5
650C
  8
0
 10
0.0
 20
0.0
 30
0.0
 70
   128
 71
   -59
 72
    82
 73
    58
  0
VERTEX
  5
650D
  8
0
 10
0.0
 20
0.0
 30
0.0
 70
   128
 71
    83
 72
   -82
 73
    59
  0
VERTEX
  5
650E
  8
0
 10
0.0
 20
0.0
 30
0.0
 70
   128
 71
   -60
 72
    83
 73
    59
  0
VERTEX
  5
650F
  8
0
 10
0.0
 20
0.0
 30
0.0
 70
   128
 71
    84
 72
   -83
 73
    60
  0
VERTEX
  5
6510
  8
0
 10
0.0
 20
0.0
 30
0.0
 70
   128
 71
   -61
 72
    84
 73
    60
  0
VERTEX
  5
6511
  8
0
 10
0.0
 20
0.0
 30
0.0
 70
   128
 71
    85
 72
   -84
 73
    61
  0
VERTEX
  5
6512
  8
0
 10
0.0
 20
0.0
 30
0.0
 70
   128
 71
   -62
 72
    85
 73
    61
  0
VERTEX
  5
6513
  8
0
 10
0.0
 20
0.0
 30
0.0
 70
   128
 71
    86
 72
   -85
 73
    62
  0
VERTEX
  5
6514
  8
0
 10
0.0
 20
0.0
 30
0.0
 70
   128
 71
   -63
 72
    86
 73
    62
  0
VERTEX
  5
6515
  8
0
 10
0.0
 20
0.0
 30
0.0
 70
   128
 71
    87
 72
   -86
 73
    63
  0
VERTEX
  5
6516
  8
0
 10
0.0
 20
0.0
 30
0.0
 70
   128
 71
   -64
 72
    87
 73
    63
  0
VERTEX
  5
6517
  8
0
 10
0.0
 20
0.0
 30
0.0
 70
   128
 71
    88
 72
   -87
 73
    64
  0
VERTEX
  5
6518
  8
0
 10
0.0
 20
0.0
 30
0.0
 70
   128
 71
   -65
 72
    88
 73
    64
  0
VERTEX
  5
6519
  8
0
 10
0.0
 20
0.0
 30
0.0
 70
   128
 71
    89
 72
   -88
 73
    65
  0
VERTEX
  5
651A
  8
0
 10
0.0
 20
0.0
 30
0.0
 70
   128
 71
   -66
 72
    89
 73
    65
  0
VERTEX
  5
651B
  8
0
 10
0.0
 20
0.0
 30
0.0
 70
   128
 71
    90
 72
   -89
 73
    66
  0
VERTEX
  5
651C
  8
0
 10
0.0
 20
0.0
 30
0.0
 70
   128
 71
   -67
 72
    90
 73
    66
  0
VERTEX
  5
651D
  8
0
 10
0.0
 20
0.0
 30
0.0
 70
   128
 71
    91
 72
   -90
 73
    67
  0
VERTEX
  5
651E
  8
0
 10
0.0
 20
0.0
 30
0.0
 70
   128
 71
   -68
 72
    91
 73
    67
  0
VERTEX
  5
651F
  8
0
 10
0.0
 20
0.0
 30
0.0
 70
   128
 71
    92
 72
   -91
 73
    68
  0
VERTEX
  5
6520
  8
0
 10
0.0
 20
0.0
 30
0.0
 70
   128
 71
   -69
 72
    92
 73
    68
  0
VERTEX
  5
6521
  8
0
 10
0.0
 20
0.0
 30
0.0
 70
   128
 71
    93
 72
   -92
 73
    69
  0
VERTEX
  5
6522
  8
0
 10
0.0
 20
0.0
 30
0.0
 70
   128
 71
   -70
 72
    93
 73
    69
  0
VERTEX
  5
6523
  8
0
 10
0.0
 20
0.0
 30
0.0
 70
   128
 71
    94
 72
   -93
 73
    70
  0
VERTEX
  5
6524
  8
0
 10
0.0
 20
0.0
 30
0.0
 70
   128
 71
   -71
 72
    94
 73
    70
  0
VERTEX
  5
6525
  8
0
 10
0.0
 20
0.0
 30
0.0
 70
   128
 71
    95
 72
   -94
 73
    71
  0
VERTEX
  5
6526
  8
0
 10
0.0
 20
0.0
 30
0.0
 70
   128
 71
   -72
 72
    95
 73
    71
  0
VERTEX
  5
6527
  8
0
 10
0.0
 20
0.0
 30
0.0
 70
   128
 71
    96
 72
   -95
 73
    72
  0
VERTEX
  5
6528
  8
0
 10
0.0
 20
0.0
 30
0.0
 70
   128
 71
   -73
 72
    96
 73
    72
  0
VERTEX
  5
6529
  8
0
 10
0.0
 20
0.0
 30
0.0
 70
   128
 71
    97
 72
   -96
 73
    73
  0
VERTEX
  5
652A
  8
0
 10
0.0
 20
0.0
 30
0.0
 70
   128
 71
   -52
 72
    97
 73
    73
  0
VERTEX
  5
652B
  8
0
 10
0.0
 20
0.0
 30
0.0
 70
   128
 71
    76
 72
   -97
 73
    52
  0
VERTEX
  5
652C
  8
0
 10
0.0
 20
0.0
 30
0.0
 70
   128
 71
   -75
 72
    98
 73
    74
  0
VERTEX
  5
652D
  8
0
 10
0.0
 20
0.0
 30
0.0
 70
   128
 71
    99
 72
   -98
 73
    75
  0
VERTEX
  5
652E
  8
0
 10
0.0
 20
0.0
 30
0.0
 70
   128
 71
   -98
 72
    76
 73
    74
  0
VERTEX
  5
652F
  8
0
 10
0.0
 20
0.0
 30
0.0
 70
   128
 71
   100
 72
   -76
 73
    98
  0
VERTEX
  5
6530
  8
0
 10
0.0
 20
0.0
 30
0.0
 70
   128
 71
   -77
 72
    99
 73
    75
  0
VERTEX
  5
6531
  8
0
 10
0.0
 20
0.0
 30
0.0
 70
   128
 71
   101
 72
   -99
 73
    77
  0
VERTEX
  5
6532
  8
0
 10
0.0
 20
0.0
 30
0.0
 70
   128
 71
   -78
 72
   101
 73
    77
  0
VERTEX
  5
6533
  8
0
 10
0.0
 20
0.0
 30
0.0
 70
   128
 71
   102
 72
  -101
 73
    78
  0
VERTEX
  5
6534
  8
0
 10
0.0
 20
0.0
 30
0.0
 70
   128
 71
   -79
 72
   102
 73
    78
  0
VERTEX
  5
6535
  8
0
 10
0.0
 20
0.0
 30
0.0
 70
   128
 71
   103
 72
  -102
 73
    79
  0
VERTEX
  5
6536
  8
0
 10
0.0
 20
0.0
 30
0.0
 70
   128
 71
   -80
 72
   103
 73
    79
  0
VERTEX
  5
6537
  8
0
 10
0.0
 20
0.0
 30
0.0
 70
   128
 71
   104
 72
  -103
 73
    80
  0
VERTEX
  5
6538
  8
0
 10
0.0
 20
0.0
 30
0.0
 70
   128
 71
   -81
 72
   104
 73
    80
  0
VERTEX
  5
6539
  8
0
 10
0.0
 20
0.0
 30
0.0
 70
   128
 71
   105
 72
  -104
 73
    81
  0
VERTEX
  5
653A
  8
0
 10
0.0
 20
0.0
 30
0.0
 70
   128
 71
   -82
 72
   105
 73
    81
  0
VERTEX
  5
653B
  8
0
 10
0.0
 20
0.0
 30
0.0
 70
   128
 71
   106
 72
  -105
 73
    82
  0
VERTEX
  5
653C
  8
0
 10
0.0
 20
0.0
 30
0.0
 70
   128
 71
   -83
 72
   106
 73
    82
  0
VERTEX
  5
653D
  8
0
 10
0.0
 20
0.0
 30
0.0
 70
   128
 71
   107
 72
  -106
 73
    83
  0
VERTEX
  5
653E
  8
0
 10
0.0
 20
0.0
 30
0.0
 70
   128
 71
   -84
 72
   107
 73
    83
  0
VERTEX
  5
653F
  8
0
 10
0.0
 20
0.0
 30
0.0
 70
   128
 71
   108
 72
  -107
 73
    84
  0
VERTEX
  5
6540
  8
0
 10
0.0
 20
0.0
 30
0.0
 70
   128
 71
   -85
 72
   108
 73
    84
  0
VERTEX
  5
6541
  8
0
 10
0.0
 20
0.0
 30
0.0
 70
   128
 71
   109
 72
  -108
 73
    85
  0
VERTEX
  5
6542
  8
0
 10
0.0
 20
0.0
 30
0.0
 70
   128
 71
   -86
 72
   109
 73
    85
  0
VERTEX
  5
6543
  8
0
 10
0.0
 20
0.0
 30
0.0
 70
   128
 71
   110
 72
  -109
 73
    86
  0
VERTEX
  5
6544
  8
0
 10
0.0
 20
0.0
 30
0.0
 70
   128
 71
   -87
 72
   110
 73
    86
  0
VERTEX
  5
6545
  8
0
 10
0.0
 20
0.0
 30
0.0
 70
   128
 71
   111
 72
  -110
 73
    87
  0
VERTEX
  5
6546
  8
0
 10
0.0
 20
0.0
 30
0.0
 70
   128
 71
   -88
 72
   111
 73
    87
  0
VERTEX
  5
6547
  8
0
 10
0.0
 20
0.0
 30
0.0
 70
   128
 71
   112
 72
  -111
 73
    88
  0
VERTEX
  5
6548
  8
0
 10
0.0
 20
0.0
 30
0.0
 70
   128
 71
   -89
 72
   112
 73
    88
  0
VERTEX
  5
6549
  8
0
 10
0.0
 20
0.0
 30
0.0
 70
   128
 71
   113
 72
  -112
 73
    89
  0
VERTEX
  5
654A
  8
0
 10
0.0
 20
0.0
 30
0.0
 70
   128
 71
   -90
 72
   113
 73
    89
  0
VERTEX
  5
654B
  8
0
 10
0.0
 20
0.0
 30
0.0
 70
   128
 71
   114
 72
  -113
 73
    90
  0
VERTEX
  5
654C
  8
0
 10
0.0
 20
0.0
 30
0.0
 70
   128
 71
   -91
 72
   114
 73
    90
  0
VERTEX
  5
654D
  8
0
 10
0.0
 20
0.0
 30
0.0
 70
   128
 71
   115
 72
  -114
 73
    91
  0
VERTEX
  5
654E
  8
0
 10
0.0
 20
0.0
 30
0.0
 70
   128
 71
   -92
 72
   115
 73
    91
  0
VERTEX
  5
654F
  8
0
 10
0.0
 20
0.0
 30
0.0
 70
   128
 71
   116
 72
  -115
 73
    92
  0
VERTEX
  5
6550
  8
0
 10
0.0
 20
0.0
 30
0.0
 70
   128
 71
   -93
 72
   116
 73
    92
  0
VERTEX
  5
6551
  8
0
 10
0.0
 20
0.0
 30
0.0
 70
   128
 71
   117
 72
  -116
 73
    93
  0
VERTEX
  5
6552
  8
0
 10
0.0
 20
0.0
 30
0.0
 70
   128
 71
   -94
 72
   117
 73
    93
  0
VERTEX
  5
6553
  8
0
 10
0.0
 20
0.0
 30
0.0
 70
   128
 71
   118
 72
  -117
 73
    94
  0
VERTEX
  5
6554
  8
0
 10
0.0
 20
0.0
 30
0.0
 70
   128
 71
   -95
 72
   118
 73
    94
  0
VERTEX
  5
6555
  8
0
 10
0.0
 20
0.0
 30
0.0
 70
   128
 71
   119
 72
  -118
 73
    95
  0
VERTEX
  5
6556
  8
0
 10
0.0
 20
0.0
 30
0.0
 70
   128
 71
   -96
 72
   119
 73
    95
  0
VERTEX
  5
6557
  8
0
 10
0.0
 20
0.0
 30
0.0
 70
   128
 71
   120
 72
  -119
 73
    96
  0
VERTEX
  5
6558
  8
0
 10
0.0
 20
0.0
 30
0.0
 70
   128
 71
   -97
 72
   120
 73
    96
  0
VERTEX
  5
6559
  8
0
 10
0.0
 20
0.0
 30
0.0
 70
   128
 71
   121
 72
  -120
 73
    97
  0
VERTEX
  5
655A
  8
0
 10
0.0
 20
0.0
 30
0.0
 70
   128
 71
   -76
 72
   121
 73
    97
  0
VERTEX
  5
655B
  8
0
 10
0.0
 20
0.0
 30
0.0
 70
   128
 71
   100
 72
  -121
 73
    76
  0
VERTEX
  5
655C
  8
0
 10
0.0
 20
0.0
 30
0.0
 70
   128
 71
   -99
 72
   122
 73
    98
  0
VERTEX
  5
655D
  8
0
 10
0.0
 20
0.0
 30
0.0
 70
   128
 71
   123
 72
  -122
 73
    99
  0
VERTEX
  5
655E
  8
0
 10
0.0
 20
0.0
 30
0.0
 70
   128
 71
  -122
 72
   100
 73
    98
  0
VERTEX
  5
655F
  8
0
 10
0.0
 20
0.0
 30
0.0
 70
   128
 71
   124
 72
  -100
 73
   122
  0
VERTEX
  5
6560
  8
0
 10
0.0
 20
0.0
 30
0.0
 70
   128
 71
  -101
 72
   123
 73
    99
  0
VERTEX
  5
6561
  8
0
 10
0.0
 20
0.0
 30
0.0
 70
   128
 71
   125
 72
  -123
 73
   101
  0
VERTEX
  5
6562
  8
0
 10
0.0
 20
0.0
 30
0.0
 70
   128
 71
  -102
 72
   125
 73
   101
  0
VERTEX
  5
6563
  8
0
 10
0.0
 20
0.0
 30
0.0
 70
   128
 71
   126
 72
  -125
 73
   102
  0
VERTEX
  5
6564
  8
0
 10
0.0
 20
0.0
 30
0.0
 70
   128
 71
  -103
 72
   126
 73
   102
  0
VERTEX
  5
6565
  8
0
 10
0.0
 20
0.0
 30
0.0
 70
   128
 71
   127
 72
  -126
 73
   103
  0
VERTEX
  5
6566
  8
0
 10
0.0
 20
0.0
 30
0.0
 70
   128
 71
  -104
 72
   127
 73
   103
  0
VERTEX
  5
6567
  8
0
 10
0.0
 20
0.0
 30
0.0
 70
   128
 71
   128
 72
  -127
 73
   104
  0
VERTEX
  5
6568
  8
0
 10
0.0
 20
0.0
 30
0.0
 70
   128
 71
  -105
 72
   128
 73
   104
  0
VERTEX
  5
6569
  8
0
 10
0.0
 20
0.0
 30
0.0
 70
   128
 71
   129
 72
  -128
 73
   105
  0
VERTEX
  5
656A
  8
0
 10
0.0
 20
0.0
 30
0.0
 70
   128
 71
  -106
 72
   129
 73
   105
  0
VERTEX
  5
656B
  8
0
 10
0.0
 20
0.0
 30
0.0
 70
   128
 71
   130
 72
  -129
 73
   106
  0
VERTEX
  5
656C
  8
0
 10
0.0
 20
0.0
 30
0.0
 70
   128
 71
  -107
 72
   130
 73
   106
  0
VERTEX
  5
656D
  8
0
 10
0.0
 20
0.0
 30
0.0
 70
   128
 71
   131
 72
  -130
 73
   107
  0
VERTEX
  5
656E
  8
0
 10
0.0
 20
0.0
 30
0.0
 70
   128
 71
  -108
 72
   131
 73
   107
  0
VERTEX
  5
656F
  8
0
 10
0.0
 20
0.0
 30
0.0
 70
   128
 71
   132
 72
  -131
 73
   108
  0
VERTEX
  5
6570
  8
0
 10
0.0
 20
0.0
 30
0.0
 70
   128
 71
  -109
 72
   132
 73
   108
  0
VERTEX
  5
6571
  8
0
 10
0.0
 20
0.0
 30
0.0
 70
   128
 71
   133
 72
  -132
 73
   109
  0
VERTEX
  5
6572
  8
0
 10
0.0
 20
0.0
 30
0.0
 70
   128
 71
  -110
 72
   133
 73
   109
  0
VERTEX
  5
6573
  8
0
 10
0.0
 20
0.0
 30
0.0
 70
   128
 71
   134
 72
  -133
 73
   110
  0
VERTEX
  5
6574
  8
0
 10
0.0
 20
0.0
 30
0.0
 70
   128
 71
  -111
 72
   134
 73
   110
  0
VERTEX
  5
6575
  8
0
 10
0.0
 20
0.0
 30
0.0
 70
   128
 71
   135
 72
  -134
 73
   111
  0
VERTEX
  5
6576
  8
0
 10
0.0
 20
0.0
 30
0.0
 70
   128
 71
  -112
 72
   135
 73
   111
  0
VERTEX
  5
6577
  8
0
 10
0.0
 20
0.0
 30
0.0
 70
   128
 71
   136
 72
  -135
 73
   112
  0
VERTEX
  5
6578
  8
0
 10
0.0
 20
0.0
 30
0.0
 70
   128
 71
  -113
 72
   136
 73
   112
  0
VERTEX
  5
6579
  8
0
 10
0.0
 20
0.0
 30
0.0
 70
   128
 71
   137
 72
  -136
 73
   113
  0
VERTEX
  5
657A
  8
0
 10
0.0
 20
0.0
 30
0.0
 70
   128
 71
  -114
 72
   137
 73
   113
  0
VERTEX
  5
657B
  8
0
 10
0.0
 20
0.0
 30
0.0
 70
   128
 71
   138
 72
  -137
 73
   114
  0
VERTEX
  5
657C
  8
0
 10
0.0
 20
0.0
 30
0.0
 70
   128
 71
  -115
 72
   138
 73
   114
  0
VERTEX
  5
657D
  8
0
 10
0.0
 20
0.0
 30
0.0
 70
   128
 71
   139
 72
  -138
 73
   115
  0
VERTEX
  5
657E
  8
0
 10
0.0
 20
0.0
 30
0.0
 70
   128
 71
  -116
 72
   139
 73
   115
  0
VERTEX
  5
657F
  8
0
 10
0.0
 20
0.0
 30
0.0
 70
   128
 71
   140
 72
  -139
 73
   116
  0
VERTEX
  5
6580
  8
0
 10
0.0
 20
0.0
 30
0.0
 70
   128
 71
  -117
 72
   140
 73
   116
  0
VERTEX
  5
6581
  8
0
 10
0.0
 20
0.0
 30
0.0
 70
   128
 71
   141
 72
  -140
 73
   117
  0
VERTEX
  5
6582
  8
0
 10
0.0
 20
0.0
 30
0.0
 70
   128
 71
  -118
 72
   141
 73
   117
  0
VERTEX
  5
6583
  8
0
 10
0.0
 20
0.0
 30
0.0
 70
   128
 71
   142
 72
  -141
 73
   118
  0
VERTEX
  5
6584
  8
0
 10
0.0
 20
0.0
 30
0.0
 70
   128
 71
  -119
 72
   142
 73
   118
  0
VERTEX
  5
6585
  8
0
 10
0.0
 20
0.0
 30
0.0
 70
   128
 71
   143
 72
  -142
 73
   119
  0
VERTEX
  5
6586
  8
0
 10
0.0
 20
0.0
 30
0.0
 70
   128
 71
  -120
 72
   143
 73
   119
  0
VERTEX
  5
6587
  8
0
 10
0.0
 20
0.0
 30
0.0
 70
   128
 71
   144
 72
  -143
 73
   120
  0
VERTEX
  5
6588
  8
0
 10
0.0
 20
0.0
 30
0.0
 70
   128
 71
  -121
 72
   144
 73
   120
  0
VERTEX
  5
6589
  8
0
 10
0.0
 20
0.0
 30
0.0
 70
   128
 71
   145
 72
  -144
 73
   121
  0
VERTEX
  5
658A
  8
0
 10
0.0
 20
0.0
 30
0.0
 70
   128
 71
  -100
 72
   145
 73
   121
  0
VERTEX
  5
658B
  8
0
 10
0.0
 20
0.0
 30
0.0
 70
   128
 71
   124
 72
  -145
 73
   100
  0
VERTEX
  5
658C
  8
0
 10
0.0
 20
0.0
 30
0.0
 70
   128
 71
  -123
 72
   146
 73
   122
  0
VERTEX
  5
658D
  8
0
 10
0.0
 20
0.0
 30
0.0
 70
   128
 71
   147
 72
  -146
 73
   123
  0
VERTEX
  5
658E
  8
0
 10
0.0
 20
0.0
 30
0.0
 70
   128
 71
  -146
 72
   124
 73
   122
  0
VERTEX
  5
658F
  8
0
 10
0.0
 20
0.0
 30
0.0
 70
   128
 71
   148
 72
  -124
 73
   146
  0
VERTEX
  5
6590
  8
0
 10
0.0
 20
0.0
 30
0.0
 70
   128
 71
  -125
 72
   147
 73
   123
  0
VERTEX
  5
6591
  8
0
 10
0.0
 20
0.0
 30
0.0
 70
   128
 71
   149
 72
  -147
 73
   125
  0
VERTEX
  5
6592
  8
0
 10
0.0
 20
0.0
 30
0.0
 70
   128
 71
  -126
 72
   149
 73
   125
  0
VERTEX
  5
6593
  8
0
 10
0.0
 20
0.0
 30
0.0
 70
   128
 71
   150
 72
  -149
 73
   126
  0
VERTEX
  5
6594
  8
0
 10
0.0
 20
0.0
 30
0.0
 70
   128
 71
  -127
 72
   150
 73
   126
  0
VERTEX
  5
6595
  8
0
 10
0.0
 20
0.0
 30
0.0
 70
   128
 71
   151
 72
  -150
 73
   127
  0
VERTEX
  5
6596
  8
0
 10
0.0
 20
0.0
 30
0.0
 70
   128
 71
  -128
 72
   151
 73
   127
  0
VERTEX
  5
6597
  8
0
 10
0.0
 20
0.0
 30
0.0
 70
   128
 71
   152
 72
  -151
 73
   128
  0
VERTEX
  5
6598
  8
0
 10
0.0
 20
0.0
 30
0.0
 70
   128
 71
  -129
 72
   152
 73
   128
  0
VERTEX
  5
6599
  8
0
 10
0.0
 20
0.0
 30
0.0
 70
   128
 71
   153
 72
  -152
 73
   129
  0
VERTEX
  5
659A
  8
0
 10
0.0
 20
0.0
 30
0.0
 70
   128
 71
  -130
 72
   153
 73
   129
  0
VERTEX
  5
659B
  8
0
 10
0.0
 20
0.0
 30
0.0
 70
   128
 71
   154
 72
  -153
 73
   130
  0
VERTEX
  5
659C
  8
0
 10
0.0
 20
0.0
 30
0.0
 70
   128
 71
  -131
 72
   154
 73
   130
  0
VERTEX
  5
659D
  8
0
 10
0.0
 20
0.0
 30
0.0
 70
   128
 71
   155
 72
  -154
 73
   131
  0
VERTEX
  5
659E
  8
0
 10
0.0
 20
0.0
 30
0.0
 70
   128
 71
  -132
 72
   155
 73
   131
  0
VERTEX
  5
659F
  8
0
 10
0.0
 20
0.0
 30
0.0
 70
   128
 71
   156
 72
  -155
 73
   132
  0
VERTEX
  5
65A0
  8
0
 10
0.0
 20
0.0
 30
0.0
 70
   128
 71
  -133
 72
   156
 73
   132
  0
VERTEX
  5
65A1
  8
0
 10
0.0
 20
0.0
 30
0.0
 70
   128
 71
   157
 72
  -156
 73
   133
  0
VERTEX
  5
65A2
  8
0
 10
0.0
 20
0.0
 30
0.0
 70
   128
 71
  -134
 72
   157
 73
   133
  0
VERTEX
  5
65A3
  8
0
 10
0.0
 20
0.0
 30
0.0
 70
   128
 71
   158
 72
  -157
 73
   134
  0
VERTEX
  5
65A4
  8
0
 10
0.0
 20
0.0
 30
0.0
 70
   128
 71
  -135
 72
   158
 73
   134
  0
VERTEX
  5
65A5
  8
0
 10
0.0
 20
0.0
 30
0.0
 70
   128
 71
   159
 72
  -158
 73
   135
  0
VERTEX
  5
65A6
  8
0
 10
0.0
 20
0.0
 30
0.0
 70
   128
 71
  -136
 72
   159
 73
   135
  0
VERTEX
  5
65A7
  8
0
 10
0.0
 20
0.0
 30
0.0
 70
   128
 71
   160
 72
  -159
 73
   136
  0
VERTEX
  5
65A8
  8
0
 10
0.0
 20
0.0
 30
0.0
 70
   128
 71
  -137
 72
   160
 73
   136
  0
VERTEX
  5
65A9
  8
0
 10
0.0
 20
0.0
 30
0.0
 70
   128
 71
   161
 72
  -160
 73
   137
  0
VERTEX
  5
65AA
  8
0
 10
0.0
 20
0.0
 30
0.0
 70
   128
 71
  -138
 72
   161
 73
   137
  0
VERTEX
  5
65AB
  8
0
 10
0.0
 20
0.0
 30
0.0
 70
   128
 71
   162
 72
  -161
 73
   138
  0
VERTEX
  5
65AC
  8
0
 10
0.0
 20
0.0
 30
0.0
 70
   128
 71
  -139
 72
   162
 73
   138
  0
VERTEX
  5
65AD
  8
0
 10
0.0
 20
0.0
 30
0.0
 70
   128
 71
   163
 72
  -162
 73
   139
  0
VERTEX
  5
65AE
  8
0
 10
0.0
 20
0.0
 30
0.0
 70
   128
 71
  -140
 72
   163
 73
   139
  0
VERTEX
  5
65AF
  8
0
 10
0.0
 20
0.0
 30
0.0
 70
   128
 71
   164
 72
  -163
 73
   140
  0
VERTEX
  5
65B0
  8
0
 10
0.0
 20
0.0
 30
0.0
 70
   128
 71
  -141
 72
   164
 73
   140
  0
VERTEX
  5
65B1
  8
0
 10
0.0
 20
0.0
 30
0.0
 70
   128
 71
   165
 72
  -164
 73
   141
  0
VERTEX
  5
65B2
  8
0
 10
0.0
 20
0.0
 30
0.0
 70
   128
 71
  -142
 72
   165
 73
   141
  0
VERTEX
  5
65B3
  8
0
 10
0.0
 20
0.0
 30
0.0
 70
   128
 71
   166
 72
  -165
 73
   142
  0
VERTEX
  5
65B4
  8
0
 10
0.0
 20
0.0
 30
0.0
 70
   128
 71
  -143
 72
   166
 73
   142
  0
VERTEX
  5
65B5
  8
0
 10
0.0
 20
0.0
 30
0.0
 70
   128
 71
   167
 72
  -166
 73
   143
  0
VERTEX
  5
65B6
  8
0
 10
0.0
 20
0.0
 30
0.0
 70
   128
 71
  -144
 72
   167
 73
   143
  0
VERTEX
  5
65B7
  8
0
 10
0.0
 20
0.0
 30
0.0
 70
   128
 71
   168
 72
  -167
 73
   144
  0
VERTEX
  5
65B8
  8
0
 10
0.0
 20
0.0
 30
0.0
 70
   128
 71
  -145
 72
   168
 73
   144
  0
VERTEX
  5
65B9
  8
0
 10
0.0
 20
0.0
 30
0.0
 70
   128
 71
   169
 72
  -168
 73
   145
  0
VERTEX
  5
65BA
  8
0
 10
0.0
 20
0.0
 30
0.0
 70
   128
 71
  -124
 72
   169
 73
   145
  0
VERTEX
  5
65BB
  8
0
 10
0.0
 20
0.0
 30
0.0
 70
   128
 71
   148
 72
  -169
 73
   124
  0
VERTEX
  5
65BC
  8
0
 10
0.0
 20
0.0
 30
0.0
 70
   128
 71
  -147
 72
   170
 73
   146
  0
VERTEX
  5
65BD
  8
0
 10
0.0
 20
0.0
 30
0.0
 70
   128
 71
   171
 72
  -170
 73
   147
  0
VERTEX
  5
65BE
  8
0
 10
0.0
 20
0.0
 30
0.0
 70
   128
 71
  -170
 72
   148
 73
   146
  0
VERTEX
  5
65BF
  8
0
 10
0.0
 20
0.0
 30
0.0
 70
   128
 71
   172
 72
  -148
 73
   170
  0
VERTEX
  5
65C0
  8
0
 10
0.0
 20
0.0
 30
0.0
 70
   128
 71
  -149
 72
   171
 73
   147
  0
VERTEX
  5
65C1
  8
0
 10
0.0
 20
0.0
 30
0.0
 70
   128
 71
   173
 72
  -171
 73
   149
  0
VERTEX
  5
65C2
  8
0
 10
0.0
 20
0.0
 30
0.0
 70
   128
 71
  -150
 72
   173
 73
   149
  0
VERTEX
  5
65C3
  8
0
 10
0.0
 20
0.0
 30
0.0
 70
   128
 71
   174
 72
  -173
 73
   150
  0
VERTEX
  5
65C4
  8
0
 10
0.0
 20
0.0
 30
0.0
 70
   128
 71
  -151
 72
   174
 73
   150
  0
VERTEX
  5
65C5
  8
0
 10
0.0
 20
0.0
 30
0.0
 70
   128
 71
   175
 72
  -174
 73
   151
  0
VERTEX
  5
65C6
  8
0
 10
0.0
 20
0.0
 30
0.0
 70
   128
 71
  -152
 72
   175
 73
   151
  0
VERTEX
  5
65C7
  8
0
 10
0.0
 20
0.0
 30
0.0
 70
   128
 71
   176
 72
  -175
 73
   152
  0
VERTEX
  5
65C8
  8
0
 10
0.0
 20
0.0
 30
0.0
 70
   128
 71
  -153
 72
   176
 73
   152
  0
VERTEX
  5
65C9
  8
0
 10
0.0
 20
0.0
 30
0.0
 70
   128
 71
   177
 72
  -176
 73
   153
  0
VERTEX
  5
65CA
  8
0
 10
0.0
 20
0.0
 30
0.0
 70
   128
 71
  -154
 72
   177
 73
   153
  0
VERTEX
  5
65CB
  8
0
 10
0.0
 20
0.0
 30
0.0
 70
   128
 71
   178
 72
  -177
 73
   154
  0
VERTEX
  5
65CC
  8
0
 10
0.0
 20
0.0
 30
0.0
 70
   128
 71
  -155
 72
   178
 73
   154
  0
VERTEX
  5
65CD
  8
0
 10
0.0
 20
0.0
 30
0.0
 70
   128
 71
   179
 72
  -178
 73
   155
  0
VERTEX
  5
65CE
  8
0
 10
0.0
 20
0.0
 30
0.0
 70
   128
 71
  -156
 72
   179
 73
   155
  0
VERTEX
  5
65CF
  8
0
 10
0.0
 20
0.0
 30
0.0
 70
   128
 71
   180
 72
  -179
 73
   156
  0
VERTEX
  5
65D0
  8
0
 10
0.0
 20
0.0
 30
0.0
 70
   128
 71
  -157
 72
   180
 73
   156
  0
VERTEX
  5
65D1
  8
0
 10
0.0
 20
0.0
 30
0.0
 70
   128
 71
   181
 72
  -180
 73
   157
  0
VERTEX
  5
65D2
  8
0
 10
0.0
 20
0.0
 30
0.0
 70
   128
 71
  -158
 72
   181
 73
   157
  0
VERTEX
  5
65D3
  8
0
 10
0.0
 20
0.0
 30
0.0
 70
   128
 71
   182
 72
  -181
 73
   158
  0
VERTEX
  5
65D4
  8
0
 10
0.0
 20
0.0
 30
0.0
 70
   128
 71
  -159
 72
   182
 73
   158
  0
VERTEX
  5
65D5
  8
0
 10
0.0
 20
0.0
 30
0.0
 70
   128
 71
   183
 72
  -182
 73
   159
  0
VERTEX
  5
65D6
  8
0
 10
0.0
 20
0.0
 30
0.0
 70
   128
 71
  -160
 72
   183
 73
   159
  0
VERTEX
  5
65D7
  8
0
 10
0.0
 20
0.0
 30
0.0
 70
   128
 71
   184
 72
  -183
 73
   160
  0
VERTEX
  5
65D8
  8
0
 10
0.0
 20
0.0
 30
0.0
 70
   128
 71
  -161
 72
   184
 73
   160
  0
VERTEX
  5
65D9
  8
0
 10
0.0
 20
0.0
 30
0.0
 70
   128
 71
   185
 72
  -184
 73
   161
  0
VERTEX
  5
65DA
  8
0
 10
0.0
 20
0.0
 30
0.0
 70
   128
 71
  -162
 72
   185
 73
   161
  0
VERTEX
  5
65DB
  8
0
 10
0.0
 20
0.0
 30
0.0
 70
   128
 71
   186
 72
  -185
 73
   162
  0
VERTEX
  5
65DC
  8
0
 10
0.0
 20
0.0
 30
0.0
 70
   128
 71
  -163
 72
   186
 73
   162
  0
VERTEX
  5
65DD
  8
0
 10
0.0
 20
0.0
 30
0.0
 70
   128
 71
   187
 72
  -186
 73
   163
  0
VERTEX
  5
65DE
  8
0
 10
0.0
 20
0.0
 30
0.0
 70
   128
 71
  -164
 72
   187
 73
   163
  0
VERTEX
  5
65DF
  8
0
 10
0.0
 20
0.0
 30
0.0
 70
   128
 71
   188
 72
  -187
 73
   164
  0
VERTEX
  5
65E0
  8
0
 10
0.0
 20
0.0
 30
0.0
 70
   128
 71
  -165
 72
   188
 73
   164
  0
VERTEX
  5
65E1
  8
0
 10
0.0
 20
0.0
 30
0.0
 70
   128
 71
   189
 72
  -188
 73
   165
  0
VERTEX
  5
65E2
  8
0
 10
0.0
 20
0.0
 30
0.0
 70
   128
 71
  -166
 72
   189
 73
   165
  0
VERTEX
  5
65E3
  8
0
 10
0.0
 20
0.0
 30
0.0
 70
   128
 71
   190
 72
  -189
 73
   166
  0
VERTEX
  5
65E4
  8
0
 10
0.0
 20
0.0
 30
0.0
 70
   128
 71
  -167
 72
   190
 73
   166
  0
VERTEX
  5
65E5
  8
0
 10
0.0
 20
0.0
 30
0.0
 70
   128
 71
   191
 72
  -190
 73
   167
  0
VERTEX
  5
65E6
  8
0
 10
0.0
 20
0.0
 30
0.0
 70
   128
 71
  -168
 72
   191
 73
   167
  0
VERTEX
  5
65E7
  8
0
 10
0.0
 20
0.0
 30
0.0
 70
   128
 71
   192
 72
  -191
 73
   168
  0
VERTEX
  5
65E8
  8
0
 10
0.0
 20
0.0
 30
0.0
 70
   128
 71
  -169
 72
   192
 73
   168
  0
VERTEX
  5
65E9
  8
0
 10
0.0
 20
0.0
 30
0.0
 70
   128
 71
   193
 72
  -192
 73
   169
  0
VERTEX
  5
65EA
  8
0
 10
0.0
 20
0.0
 30
0.0
 70
   128
 71
  -148
 72
   193
 73
   169
  0
VERTEX
  5
65EB
  8
0
 10
0.0
 20
0.0
 30
0.0
 70
   128
 71
   172
 72
  -193
 73
   148
  0
VERTEX
  5
65EC
  8
0
 10
0.0
 20
0.0
 30
0.0
 70
   128
 71
  -171
 72
   194
 73
   170
  0
VERTEX
  5
65ED
  8
0
 10
0.0
 20
0.0
 30
0.0
 70
   128
 71
   195
 72
  -194
 73
   171
  0
VERTEX
  5
65EE
  8
0
 10
0.0
 20
0.0
 30
0.0
 70
   128
 71
  -194
 72
   172
 73
   170
  0
VERTEX
  5
65EF
  8
0
 10
0.0
 20
0.0
 30
0.0
 70
   128
 71
   196
 72
  -172
 73
   194
  0
VERTEX
  5
65F0
  8
0
 10
0.0
 20
0.0
 30
0.0
 70
   128
 71
  -173
 72
   195
 73
   171
  0
VERTEX
  5
65F1
  8
0
 10
0.0
 20
0.0
 30
0.0
 70
   128
 71
   197
 72
  -195
 73
   173
  0
VERTEX
  5
65F2
  8
0
 10
0.0
 20
0.0
 30
0.0
 70
   128
 71
  -174
 72
   197
 73
   173
  0
VERTEX
  5
65F3
  8
0
 10
0.0
 20
0.0
 30
0.0
 70
   128
 71
   198
 72
  -197
 73
   174
  0
VERTEX
  5
65F4
  8
0
 10
0.0
 20
0.0
 30
0.0
 70
   128
 71
  -175
 72
   198
 73
   174
  0
VERTEX
  5
65F5
  8
0
 10
0.0
 20
0.0
 30
0.0
 70
   128
 71
   199
 72
  -198
 73
   175
  0
VERTEX
  5
65F6
  8
0
 10
0.0
 20
0.0
 30
0.0
 70
   128
 71
  -176
 72
   199
 73
   175
  0
VERTEX
  5
65F7
  8
0
 10
0.0
 20
0.0
 30
0.0
 70
   128
 71
   200
 72
  -199
 73
   176
  0
VERTEX
  5
65F8
  8
0
 10
0.0
 20
0.0
 30
0.0
 70
   128
 71
  -177
 72
   200
 73
   176
  0
VERTEX
  5
65F9
  8
0
 10
0.0
 20
0.0
 30
0.0
 70
   128
 71
   201
 72
  -200
 73
   177
  0
VERTEX
  5
65FA
  8
0
 10
0.0
 20
0.0
 30
0.0
 70
   128
 71
  -178
 72
   201
 73
   177
  0
VERTEX
  5
65FB
  8
0
 10
0.0
 20
0.0
 30
0.0
 70
   128
 71
   202
 72
  -201
 73
   178
  0
VERTEX
  5
65FC
  8
0
 10
0.0
 20
0.0
 30
0.0
 70
   128
 71
  -179
 72
   202
 73
   178
  0
VERTEX
  5
65FD
  8
0
 10
0.0
 20
0.0
 30
0.0
 70
   128
 71
   203
 72
  -202
 73
   179
  0
VERTEX
  5
65FE
  8
0
 10
0.0
 20
0.0
 30
0.0
 70
   128
 71
  -180
 72
   203
 73
   179
  0
VERTEX
  5
65FF
  8
0
 10
0.0
 20
0.0
 30
0.0
 70
   128
 71
   204
 72
  -203
 73
   180
  0
VERTEX
  5
6600
  8
0
 10
0.0
 20
0.0
 30
0.0
 70
   128
 71
  -181
 72
   204
 73
   180
  0
VERTEX
  5
6601
  8
0
 10
0.0
 20
0.0
 30
0.0
 70
   128
 71
   205
 72
  -204
 73
   181
  0
VERTEX
  5
6602
  8
0
 10
0.0
 20
0.0
 30
0.0
 70
   128
 71
  -182
 72
   205
 73
   181
  0
VERTEX
  5
6603
  8
0
 10
0.0
 20
0.0
 30
0.0
 70
   128
 71
   206
 72
  -205
 73
   182
  0
VERTEX
  5
6604
  8
0
 10
0.0
 20
0.0
 30
0.0
 70
   128
 71
  -183
 72
   206
 73
   182
  0
VERTEX
  5
6605
  8
0
 10
0.0
 20
0.0
 30
0.0
 70
   128
 71
   207
 72
  -206
 73
   183
  0
VERTEX
  5
6606
  8
0
 10
0.0
 20
0.0
 30
0.0
 70
   128
 71
  -184
 72
   207
 73
   183
  0
VERTEX
  5
6607
  8
0
 10
0.0
 20
0.0
 30
0.0
 70
   128
 71
   208
 72
  -207
 73
   184
  0
VERTEX
  5
6608
  8
0
 10
0.0
 20
0.0
 30
0.0
 70
   128
 71
  -185
 72
   208
 73
   184
  0
VERTEX
  5
6609
  8
0
 10
0.0
 20
0.0
 30
0.0
 70
   128
 71
   209
 72
  -208
 73
   185
  0
VERTEX
  5
660A
  8
0
 10
0.0
 20
0.0
 30
0.0
 70
   128
 71
  -186
 72
   209
 73
   185
  0
VERTEX
  5
660B
  8
0
 10
0.0
 20
0.0
 30
0.0
 70
   128
 71
   210
 72
  -209
 73
   186
  0
VERTEX
  5
660C
  8
0
 10
0.0
 20
0.0
 30
0.0
 70
   128
 71
  -187
 72
   210
 73
   186
  0
VERTEX
  5
660D
  8
0
 10
0.0
 20
0.0
 30
0.0
 70
   128
 71
   211
 72
  -210
 73
   187
  0
VERTEX
  5
660E
  8
0
 10
0.0
 20
0.0
 30
0.0
 70
   128
 71
  -188
 72
   211
 73
   187
  0
VERTEX
  5
660F
  8
0
 10
0.0
 20
0.0
 30
0.0
 70
   128
 71
   212
 72
  -211
 73
   188
  0
VERTEX
  5
6610
  8
0
 10
0.0
 20
0.0
 30
0.0
 70
   128
 71
  -189
 72
   212
 73
   188
  0
VERTEX
  5
6611
  8
0
 10
0.0
 20
0.0
 30
0.0
 70
   128
 71
   213
 72
  -212
 73
   189
  0
VERTEX
  5
6612
  8
0
 10
0.0
 20
0.0
 30
0.0
 70
   128
 71
  -190
 72
   213
 73
   189
  0
VERTEX
  5
6613
  8
0
 10
0.0
 20
0.0
 30
0.0
 70
   128
 71
   214
 72
  -213
 73
   190
  0
VERTEX
  5
6614
  8
0
 10
0.0
 20
0.0
 30
0.0
 70
   128
 71
  -191
 72
   214
 73
   190
  0
VERTEX
  5
6615
  8
0
 10
0.0
 20
0.0
 30
0.0
 70
   128
 71
   215
 72
  -214
 73
   191
  0
VERTEX
  5
6616
  8
0
 10
0.0
 20
0.0
 30
0.0
 70
   128
 71
  -192
 72
   215
 73
   191
  0
VERTEX
  5
6617
  8
0
 10
0.0
 20
0.0
 30
0.0
 70
   128
 71
   216
 72
  -215
 73
   192
  0
VERTEX
  5
6618
  8
0
 10
0.0
 20
0.0
 30
0.0
 70
   128
 71
  -193
 72
   216
 73
   192
  0
VERTEX
  5
6619
  8
0
 10
0.0
 20
0.0
 30
0.0
 70
   128
 71
   217
 72
  -216
 73
   193
  0
VERTEX
  5
661A
  8
0
 10
0.0
 20
0.0
 30
0.0
 70
   128
 71
  -172
 72
   217
 73
   193
  0
VERTEX
  5
661B
  8
0
 10
0.0
 20
0.0
 30
0.0
 70
   128
 71
   196
 72
  -217
 73
   172
  0
VERTEX
  5
661C
  8
0
 10
0.0
 20
0.0
 30
0.0
 70
   128
 71
  -195
 72
   218
 73
   194
  0
VERTEX
  5
661D
  8
0
 10
0.0
 20
0.0
 30
0.0
 70
   128
 71
   219
 72
  -218
 73
   195
  0
VERTEX
  5
661E
  8
0
 10
0.0
 20
0.0
 30
0.0
 70
   128
 71
  -218
 72
   196
 73
   194
  0
VERTEX
  5
661F
  8
0
 10
0.0
 20
0.0
 30
0.0
 70
   128
 71
   220
 72
  -196
 73
   218
  0
VERTEX
  5
6620
  8
0
 10
0.0
 20
0.0
 30
0.0
 70
   128
 71
  -197
 72
   219
 73
   195
  0
VERTEX
  5
6621
  8
0
 10
0.0
 20
0.0
 30
0.0
 70
   128
 71
   221
 72
  -219
 73
   197
  0
VERTEX
  5
6622
  8
0
 10
0.0
 20
0.0
 30
0.0
 70
   128
 71
  -198
 72
   221
 73
   197
  0
VERTEX
  5
6623
  8
0
 10
0.0
 20
0.0
 30
0.0
 70
   128
 71
   222
 72
  -221
 73
   198
  0
VERTEX
  5
6624
  8
0
 10
0.0
 20
0.0
 30
0.0
 70
   128
 71
  -199
 72
   222
 73
   198
  0
VERTEX
  5
6625
  8
0
 10
0.0
 20
0.0
 30
0.0
 70
   128
 71
   223
 72
  -222
 73
   199
  0
VERTEX
  5
6626
  8
0
 10
0.0
 20
0.0
 30
0.0
 70
   128
 71
  -200
 72
   223
 73
   199
  0
VERTEX
  5
6627
  8
0
 10
0.0
 20
0.0
 30
0.0
 70
   128
 71
   224
 72
  -223
 73
   200
  0
VERTEX
  5
6628
  8
0
 10
0.0
 20
0.0
 30
0.0
 70
   128
 71
  -201
 72
   224
 73
   200
  0
VERTEX
  5
6629
  8
0
 10
0.0
 20
0.0
 30
0.0
 70
   128
 71
   225
 72
  -224
 73
   201
  0
VERTEX
  5
662A
  8
0
 10
0.0
 20
0.0
 30
0.0
 70
   128
 71
  -202
 72
   225
 73
   201
  0
VERTEX
  5
662B
  8
0
 10
0.0
 20
0.0
 30
0.0
 70
   128
 71
   226
 72
  -225
 73
   202
  0
VERTEX
  5
662C
  8
0
 10
0.0
 20
0.0
 30
0.0
 70
   128
 71
  -203
 72
   226
 73
   202
  0
VERTEX
  5
662D
  8
0
 10
0.0
 20
0.0
 30
0.0
 70
   128
 71
   227
 72
  -226
 73
   203
  0
VERTEX
  5
662E
  8
0
 10
0.0
 20
0.0
 30
0.0
 70
   128
 71
  -204
 72
   227
 73
   203
  0
VERTEX
  5
662F
  8
0
 10
0.0
 20
0.0
 30
0.0
 70
   128
 71
   228
 72
  -227
 73
   204
  0
VERTEX
  5
6630
  8
0
 10
0.0
 20
0.0
 30
0.0
 70
   128
 71
  -205
 72
   228
 73
   204
  0
VERTEX
  5
6631
  8
0
 10
0.0
 20
0.0
 30
0.0
 70
   128
 71
   229
 72
  -228
 73
   205
  0
VERTEX
  5
6632
  8
0
 10
0.0
 20
0.0
 30
0.0
 70
   128
 71
  -206
 72
   229
 73
   205
  0
VERTEX
  5
6633
  8
0
 10
0.0
 20
0.0
 30
0.0
 70
   128
 71
   230
 72
  -229
 73
   206
  0
VERTEX
  5
6634
  8
0
 10
0.0
 20
0.0
 30
0.0
 70
   128
 71
  -207
 72
   230
 73
   206
  0
VERTEX
  5
6635
  8
0
 10
0.0
 20
0.0
 30
0.0
 70
   128
 71
   231
 72
  -230
 73
   207
  0
VERTEX
  5
6636
  8
0
 10
0.0
 20
0.0
 30
0.0
 70
   128
 71
  -208
 72
   231
 73
   207
  0
VERTEX
  5
6637
  8
0
 10
0.0
 20
0.0
 30
0.0
 70
   128
 71
   232
 72
  -231
 73
   208
  0
VERTEX
  5
6638
  8
0
 10
0.0
 20
0.0
 30
0.0
 70
   128
 71
  -209
 72
   232
 73
   208
  0
VERTEX
  5
6639
  8
0
 10
0.0
 20
0.0
 30
0.0
 70
   128
 71
   233
 72
  -232
 73
   209
  0
VERTEX
  5
663A
  8
0
 10
0.0
 20
0.0
 30
0.0
 70
   128
 71
  -210
 72
   233
 73
   209
  0
VERTEX
  5
663B
  8
0
 10
0.0
 20
0.0
 30
0.0
 70
   128
 71
   234
 72
  -233
 73
   210
  0
VERTEX
  5
663C
  8
0
 10
0.0
 20
0.0
 30
0.0
 70
   128
 71
  -211
 72
   234
 73
   210
  0
VERTEX
  5
663D
  8
0
 10
0.0
 20
0.0
 30
0.0
 70
   128
 71
   235
 72
  -234
 73
   211
  0
VERTEX
  5
663E
  8
0
 10
0.0
 20
0.0
 30
0.0
 70
   128
 71
  -212
 72
   235
 73
   211
  0
VERTEX
  5
663F
  8
0
 10
0.0
 20
0.0
 30
0.0
 70
   128
 71
   236
 72
  -235
 73
   212
  0
VERTEX
  5
6640
  8
0
 10
0.0
 20
0.0
 30
0.0
 70
   128
 71
  -213
 72
   236
 73
   212
  0
VERTEX
  5
6641
  8
0
 10
0.0
 20
0.0
 30
0.0
 70
   128
 71
   237
 72
  -236
 73
   213
  0
VERTEX
  5
6642
  8
0
 10
0.0
 20
0.0
 30
0.0
 70
   128
 71
  -214
 72
   237
 73
   213
  0
VERTEX
  5
6643
  8
0
 10
0.0
 20
0.0
 30
0.0
 70
   128
 71
   238
 72
  -237
 73
   214
  0
VERTEX
  5
6644
  8
0
 10
0.0
 20
0.0
 30
0.0
 70
   128
 71
  -215
 72
   238
 73
   214
  0
VERTEX
  5
6645
  8
0
 10
0.0
 20
0.0
 30
0.0
 70
   128
 71
   239
 72
  -238
 73
   215
  0
VERTEX
  5
6646
  8
0
 10
0.0
 20
0.0
 30
0.0
 70
   128
 71
  -216
 72
   239
 73
   215
  0
VERTEX
  5
6647
  8
0
 10
0.0
 20
0.0
 30
0.0
 70
   128
 71
   240
 72
  -239
 73
   216
  0
VERTEX
  5
6648
  8
0
 10
0.0
 20
0.0
 30
0.0
 70
   128
 71
  -217
 72
   240
 73
   216
  0
VERTEX
  5
6649
  8
0
 10
0.0
 20
0.0
 30
0.0
 70
   128
 71
   241
 72
  -240
 73
   217
  0
VERTEX
  5
664A
  8
0
 10
0.0
 20
0.0
 30
0.0
 70
   128
 71
  -196
 72
   241
 73
   217
  0
VERTEX
  5
664B
  8
0
 10
0.0
 20
0.0
 30
0.0
 70
   128
 71
   220
 72
  -241
 73
   196
  0
VERTEX
  5
664C
  8
0
 10
0.0
 20
0.0
 30
0.0
 70
   128
 71
  -219
 72
   242
 73
   218
  0
VERTEX
  5
664D
  8
0
 10
0.0
 20
0.0
 30
0.0
 70
   128
 71
   243
 72
  -242
 73
   219
  0
VERTEX
  5
664E
  8
0
 10
0.0
 20
0.0
 30
0.0
 70
   128
 71
  -242
 72
   220
 73
   218
  0
VERTEX
  5
664F
  8
0
 10
0.0
 20
0.0
 30
0.0
 70
   128
 71
   244
 72
  -220
 73
   242
  0
VERTEX
  5
6650
  8
0
 10
0.0
 20
0.0
 30
0.0
 70
   128
 71
  -221
 72
   243
 73
   219
  0
VERTEX
  5
6651
  8
0
 10
0.0
 20
0.0
 30
0.0
 70
   128
 71
   245
 72
  -243
 73
   221
  0
VERTEX
  5
6652
  8
0
 10
0.0
 20
0.0
 30
0.0
 70
   128
 71
  -222
 72
   245
 73
   221
  0
VERTEX
  5
6653
  8
0
 10
0.0
 20
0.0
 30
0.0
 70
   128
 71
   246
 72
  -245
 73
   222
  0
VERTEX
  5
6654
  8
0
 10
0.0
 20
0.0
 30
0.0
 70
   128
 71
  -223
 72
   246
 73
   222
  0
VERTEX
  5
6655
  8
0
 10
0.0
 20
0.0
 30
0.0
 70
   128
 71
   247
 72
  -246
 73
   223
  0
VERTEX
  5
6656
  8
0
 10
0.0
 20
0.0
 30
0.0
 70
   128
 71
  -224
 72
   247
 73
   223
  0
VERTEX
  5
6657
  8
0
 10
0.0
 20
0.0
 30
0.0
 70
   128
 71
   248
 72
  -247
 73
   224
  0
VERTEX
  5
6658
  8
0
 10
0.0
 20
0.0
 30
0.0
 70
   128
 71
  -225
 72
   248
 73
   224
  0
VERTEX
  5
6659
  8
0
 10
0.0
 20
0.0
 30
0.0
 70
   128
 71
   249
 72
  -248
 73
   225
  0
VERTEX
  5
665A
  8
0
 10
0.0
 20
0.0
 30
0.0
 70
   128
 71
  -226
 72
   249
 73
   225
  0
VERTEX
  5
665B
  8
0
 10
0.0
 20
0.0
 30
0.0
 70
   128
 71
   250
 72
  -249
 73
   226
  0
VERTEX
  5
665C
  8
0
 10
0.0
 20
0.0
 30
0.0
 70
   128
 71
  -227
 72
   250
 73
   226
  0
VERTEX
  5
665D
  8
0
 10
0.0
 20
0.0
 30
0.0
 70
   128
 71
   251
 72
  -250
 73
   227
  0
VERTEX
  5
665E
  8
0
 10
0.0
 20
0.0
 30
0.0
 70
   128
 71
  -228
 72
   251
 73
   227
  0
VERTEX
  5
665F
  8
0
 10
0.0
 20
0.0
 30
0.0
 70
   128
 71
   252
 72
  -251
 73
   228
  0
VERTEX
  5
6660
  8
0
 10
0.0
 20
0.0
 30
0.0
 70
   128
 71
  -229
 72
   252
 73
   228
  0
VERTEX
  5
6661
  8
0
 10
0.0
 20
0.0
 30
0.0
 70
   128
 71
   253
 72
  -252
 73
   229
  0
VERTEX
  5
6662
  8
0
 10
0.0
 20
0.0
 30
0.0
 70
   128
 71
  -230
 72
   253
 73
   229
  0
VERTEX
  5
6663
  8
0
 10
0.0
 20
0.0
 30
0.0
 70
   128
 71
   254
 72
  -253
 73
   230
  0
VERTEX
  5
6664
  8
0
 10
0.0
 20
0.0
 30
0.0
 70
   128
 71
  -231
 72
   254
 73
   230
  0
VERTEX
  5
6665
  8
0
 10
0.0
 20
0.0
 30
0.0
 70
   128
 71
   255
 72
  -254
 73
   231
  0
VERTEX
  5
6666
  8
0
 10
0.0
 20
0.0
 30
0.0
 70
   128
 71
  -232
 72
   255
 73
   231
  0
VERTEX
  5
6667
  8
0
 10
0.0
 20
0.0
 30
0.0
 70
   128
 71
   256
 72
  -255
 73
   232
  0
VERTEX
  5
6668
  8
0
 10
0.0
 20
0.0
 30
0.0
 70
   128
 71
  -233
 72
   256
 73
   232
  0
VERTEX
  5
6669
  8
0
 10
0.0
 20
0.0
 30
0.0
 70
   128
 71
   257
 72
  -256
 73
   233
  0
VERTEX
  5
666A
  8
0
 10
0.0
 20
0.0
 30
0.0
 70
   128
 71
  -234
 72
   257
 73
   233
  0
VERTEX
  5
666B
  8
0
 10
0.0
 20
0.0
 30
0.0
 70
   128
 71
   258
 72
  -257
 73
   234
  0
VERTEX
  5
666C
  8
0
 10
0.0
 20
0.0
 30
0.0
 70
   128
 71
  -235
 72
   258
 73
   234
  0
VERTEX
  5
666D
  8
0
 10
0.0
 20
0.0
 30
0.0
 70
   128
 71
   259
 72
  -258
 73
   235
  0
VERTEX
  5
666E
  8
0
 10
0.0
 20
0.0
 30
0.0
 70
   128
 71
  -236
 72
   259
 73
   235
  0
VERTEX
  5
666F
  8
0
 10
0.0
 20
0.0
 30
0.0
 70
   128
 71
   260
 72
  -259
 73
   236
  0
VERTEX
  5
6670
  8
0
 10
0.0
 20
0.0
 30
0.0
 70
   128
 71
  -237
 72
   260
 73
   236
  0
VERTEX
  5
6671
  8
0
 10
0.0
 20
0.0
 30
0.0
 70
   128
 71
   261
 72
  -260
 73
   237
  0
VERTEX
  5
6672
  8
0
 10
0.0
 20
0.0
 30
0.0
 70
   128
 71
  -238
 72
   261
 73
   237
  0
VERTEX
  5
6673
  8
0
 10
0.0
 20
0.0
 30
0.0
 70
   128
 71
   262
 72
  -261
 73
   238
  0
VERTEX
  5
6674
  8
0
 10
0.0
 20
0.0
 30
0.0
 70
   128
 71
  -239
 72
   262
 73
   238
  0
VERTEX
  5
6675
  8
0
 10
0.0
 20
0.0
 30
0.0
 70
   128
 71
   263
 72
  -262
 73
   239
  0
VERTEX
  5
6676
  8
0
 10
0.0
 20
0.0
 30
0.0
 70
   128
 71
  -240
 72
   263
 73
   239
  0
VERTEX
  5
6677
  8
0
 10
0.0
 20
0.0
 30
0.0
 70
   128
 71
   264
 72
  -263
 73
   240
  0
VERTEX
  5
6678
  8
0
 10
0.0
 20
0.0
 30
0.0
 70
   128
 71
  -241
 72
   264
 73
   240
  0
VERTEX
  5
6679
  8
0
 10
0.0
 20
0.0
 30
0.0
 70
   128
 71
   265
 72
  -264
 73
   241
  0
VERTEX
  5
667A
  8
0
 10
0.0
 20
0.0
 30
0.0
 70
   128
 71
  -220
 72
   265
 73
   241
  0
VERTEX
  5
667B
  8
0
 10
0.0
 20
0.0
 30
0.0
 70
   128
 71
   244
 72
  -265
 73
   220
  0
VERTEX
  5
667C
  8
0
 10
0.0
 20
0.0
 30
0.0
 70
   128
 71
   243
 72
   266
 73
   242
  0
VERTEX
  5
667D
  8
0
 10
0.0
 20
0.0
 30
0.0
 70
   128
 71
   266
 72
   244
 73
   242
  0
VERTEX
  5
667E
  8
0
 10
0.0
 20
0.0
 30
0.0
 70
   128
 71
   245
 72
   266
 73
   243
  0
VERTEX
  5
667F
  8
0
 10
0.0
 20
0.0
 30
0.0
 70
   128
 71
   246
 72
   266
 73
   245
  0
VERTEX
  5
6680
  8
0
 10
0.0
 20
0.0
 30
0.0
 70
   128
 71
   247
 72
   266
 73
   246
  0
VERTEX
  5
6681
  8
0
 10
0.0
 20
0.0
 30
0.0
 70
   128
 71
   248
 72
   266
 73
   247
  0
VERTEX
  5
6682
  8
0
 10
0.0
 20
0.0
 30
0.0
 70
   128
 71
   249
 72
   266
 73
   248
  0
VERTEX
  5
6683
  8
0
 10
0.0
 20
0.0
 30
0.0
 70
   128
 71
   250
 72
   266
 73
   249
  0
VERTEX
  5
6684
  8
0
 10
0.0
 20
0.0
 30
0.0
 70
   128
 71
   251
 72
   266
 73
   250
  0
VERTEX
  5
6685
  8
0
 10
0.0
 20
0.0
 30
0.0
 70
   128
 71
   252
 72
   266
 73
   251
  0
VERTEX
  5
6686
  8
0
 10
0.0
 20
0.0
 30
0.0
 70
   128
 71
   253
 72
   266
 73
   252
  0
VERTEX
  5
6687
  8
0
 10
0.0
 20
0.0
 30
0.0
 70
   128
 71
   254
 72
   266
 73
   253
  0
VERTEX
  5
6688
  8
0
 10
0.0
 20
0.0
 30
0.0
 70
   128
 71
   255
 72
   266
 73
   254
  0
VERTEX
  5
6689
  8
0
 10
0.0
 20
0.0
 30
0.0
 70
   128
 71
   256
 72
   266
 73
   255
  0
VERTEX
  5
668A
  8
0
 10
0.0
 20
0.0
 30
0.0
 70
   128
 71
   257
 72
   266
 73
   256
  0
VERTEX
  5
668B
  8
0
 10
0.0
 20
0.0
 30
0.0
 70
   128
 71
   258
 72
   266
 73
   257
  0
VERTEX
  5
668C
  8
0
 10
0.0
 20
0.0
 30
0.0
 70
   128
 71
   259
 72
   266
 73
   258
  0
VERTEX
  5
668D
  8
0
 10
0.0
 20
0.0
 30
0.0
 70
   128
 71
   260
 72
   266
 73
   259
  0
VERTEX
  5
668E
  8
0
 10
0.0
 20
0.0
 30
0.0
 70
   128
 71
   261
 72
   266
 73
   260
  0
VERTEX
  5
668F
  8
0
 10
0.0
 20
0.0
 30
0.0
 70
   128
 71
   262
 72
   266
 73
   261
  0
VERTEX
  5
6690
  8
0
 10
0.0
 20
0.0
 30
0.0
 70
   128
 71
   263
 72
   266
 73
   262
  0
VERTEX
  5
6691
  8
0
 10
0.0
 20
0.0
 30
0.0
 70
   128
 71
   264
 72
   266
 73
   263
  0
VERTEX
  5
6692
  8
0
 10
0.0
 20
0.0
 30
0.0
 70
   128
 71
   265
 72
   266
 73
   264
  0
VERTEX
  5
6693
  8
0
 10
0.0
 20
0.0
 30
0.0
 70
   128
 71
   244
 72
   266
 73
   265
  0
SEQEND
  5
6694
  8
0
  0
ENDBLK
  5
6918
  8
0
  0
BLOCK
  8
0
  2
A$C70141552
 70
     0
 10
0.0
 20
0.0
 30
0.0
  3
A$C70141552
  1

  0
INSERT
  5
541C
  8
0
  2
*X23
 10
0.0
 20
0.0
 30
0.0
  0
ENDBLK
  5
691C
  8
0
  0
BLOCK
  8
0
  2
*X23
 70
     1
 10
0.0
 20
0.0
 30
0.0
  3
*X23
  1

  0
POLYLINE
  5
6696
  8
0
 66
     1
 10
0.0
 20
0.0
 30
0.0
 70
    64
 71
    82
 72
    80
  0
VERTEX
  5
6697
  8
0
 10
12067.11780985376
 20
-123.1632818454837
 30
132.11968044451669
 70
   192
  0
VERTEX
  5
6698
  8
0
 10
12067.73345438666
 20
-123.1632818454837
 30
129.18352959533999
 70
   192
  0
VERTEX
  5
6699
  8
0
 10
12067.552709940581
 20
-125.509798821087
 30
129.14563156632269
 70
   192
  0
VERTEX
  5
669A
  8
0
 10
12066.937065407679
 20
-125.5097988210871
 30
132.08178241549939
 70
   192
  0
VERTEX
  5
669B
  8
0
 10
12067.014927130451
 20
-127.7985367611076
 30
129.03287065452199
 70
   192
  0
VERTEX
  5
669C
  8
0
 10
12066.39928259756
 20
-127.7985367611077
 30
131.96902150369871
 70
   192
  0
VERTEX
  5
669D
  8
0
 10
12066.133347953861
 20
-129.973139341577
 30
128.8480234078186
 70
   192
  0
VERTEX
  5
669E
  8
0
 10
12065.51770342097
 20
-129.97313934157719
 30
131.78417425699519
 70
   192
  0
VERTEX
  5
669F
  8
0
 10
12064.929679815939
 20
-131.98006062987031
 30
128.59564137889831
 70
   192
  0
VERTEX
  5
66A0
  8
0
 10
12064.31403528304
 20
-131.98006062987059
 30
131.53179222807501
 70
   192
  0
VERTEX
  5
66A1
  8
0
 10
12063.433561020969
 20
-133.76988356328161
 30
128.28193905092201
 70
   192
  0
VERTEX
  5
66A2
  8
0
 10
12062.81791648808
 20
-133.76988356328181
 30
131.2180899000987
 70
   192
  0
VERTEX
  5
66A3
  8
0
 10
12061.681830979031
 20
-135.2985367611075
 30
127.9146408163223
 70
   192
  0
VERTEX
  5
66A4
  8
0
 10
12061.06618644614
 20
-135.29853676110781
 30
130.850791665499
 70
   192
  0
VERTEX
  5
66A5
  8
0
 10
12059.717623097409
 20
-136.52837970830939
 30
127.5027907766283
 70
   192
  0
VERTEX
  5
66A6
  8
0
 10
12059.10197856452
 20
-136.52837970830959
 30
130.43894162580489
 70
   192
  0
VERTEX
  5
66A7
  8
0
 10
12057.58930269299
 20
-137.4291295899109
 30
127.0565300466689
 70
   192
  0
VERTEX
  5
66A8
  8
0
 10
12056.973658160099
 20
-137.4291295899111
 30
129.99268089584541
 70
   192
  0
VERTEX
  5
66A9
  8
0
 10
12055.349276077621
 20
-137.97860695441071
 30
126.5868470466702
 70
   192
  0
VERTEX
  5
66AA
  8
0
 10
12054.733631544719
 20
-137.97860695441079
 30
129.5229978958468
 70
   192
  0
VERTEX
  5
66AB
  8
0
 10
12053.05270014077
 20
-138.16328184548371
 30
126.1053069308808
 70
   192
  0
VERTEX
  5
66AC
  8
0
 10
12052.437055607879
 20
-138.16328184548371
 30
129.04145778005741
 70
   192
  0
VERTEX
  5
66AD
  8
0
 10
12050.75612420393
 20
-137.97860695441079
 30
125.6237668150914
 70
   192
  0
VERTEX
  5
66AE
  8
0
 10
12050.140479671039
 20
-137.97860695441071
 30
128.559917664268
 70
   192
  0
VERTEX
  5
66AF
  8
0
 10
12048.51609758855
 20
-137.4291295899111
 30
125.1540838150927
 70
   192
  0
VERTEX
  5
66B0
  8
0
 10
12047.900453055659
 20
-137.4291295899109
 30
128.0902346642693
 70
   192
  0
VERTEX
  5
66B1
  8
0
 10
12046.387777184131
 20
-136.52837970830959
 30
124.7078230851333
 70
   192
  0
VERTEX
  5
66B2
  8
0
 10
12045.77213265124
 20
-136.52837970830939
 30
127.6439739343099
 70
   192
  0
VERTEX
  5
66B3
  8
0
 10
12044.423569302509
 20
-135.29853676110781
 30
124.2959730454392
 70
   192
  0
VERTEX
  5
66B4
  8
0
 10
12043.807924769621
 20
-135.2985367611075
 30
127.2321238946158
 70
   192
  0
VERTEX
  5
66B5
  8
0
 10
12042.67183926058
 20
-133.76988356328181
 30
123.9286748108395
 70
   192
  0
VERTEX
  5
66B6
  8
0
 10
12042.05619472768
 20
-133.76988356328161
 30
126.86482566001619
 70
   192
  0
VERTEX
  5
66B7
  8
0
 10
12041.17572046561
 20
-131.98006062987059
 30
123.61497248286319
 70
   192
  0
VERTEX
  5
66B8
  8
0
 10
12040.560075932721
 20
-131.98006062987031
 30
126.55112333203979
 70
   192
  0
VERTEX
  5
66B9
  8
0
 10
12039.97205232769
 20
-129.97313934157719
 30
123.3625904539429
 70
   192
  0
VERTEX
  5
66BA
  8
0
 10
12039.35640779479
 20
-129.973139341577
 30
126.2987413031196
 70
   192
  0
VERTEX
  5
66BB
  8
0
 10
12039.0904731511
 20
-127.7985367611078
 30
123.1777432072394
 70
   192
  0
VERTEX
  5
66BC
  8
0
 10
12038.474828618209
 20
-127.7985367611076
 30
126.1138940564161
 70
   192
  0
VERTEX
  5
66BD
  8
0
 10
12038.55269034097
 20
-125.5097988210871
 30
123.0649822954387
 70
   192
  0
VERTEX
  5
66BE
  8
0
 10
12037.937045808079
 20
-125.509798821087
 30
126.00113314461539
 70
   192
  0
VERTEX
  5
66BF
  8
0
 10
12038.371945894891
 20
-123.1632818454837
 30
123.0270842664214
 70
   192
  0
VERTEX
  5
66C0
  8
0
 10
12037.756301362
 20
-123.1632818454837
 30
125.9632351155981
 70
   192
  0
VERTEX
  5
66C1
  8
0
 10
12038.55269034097
 20
-120.8167648698802
 30
123.0649822954387
 70
   192
  0
VERTEX
  5
66C2
  8
0
 10
12037.937045808079
 20
-120.8167648698803
 30
126.00113314461539
 70
   192
  0
VERTEX
  5
66C3
  8
0
 10
12039.0904731511
 20
-118.52802692985949
 30
123.1777432072394
 70
   192
  0
VERTEX
  5
66C4
  8
0
 10
12038.474828618209
 20
-118.52802692985971
 30
126.1138940564161
 70
   192
  0
VERTEX
  5
66C5
  8
0
 10
12039.97205232769
 20
-116.3534243493901
 30
123.3625904539429
 70
   192
  0
VERTEX
  5
66C6
  8
0
 10
12039.35640779479
 20
-116.35342434939029
 30
126.2987413031196
 70
   192
  0
VERTEX
  5
66C7
  8
0
 10
12041.17572046561
 20
-114.3465030610967
 30
123.61497248286319
 70
   192
  0
VERTEX
  5
66C8
  8
0
 10
12040.560075932721
 20
-114.346503061097
 30
126.55112333203979
 70
   192
  0
VERTEX
  5
66C9
  8
0
 10
12042.67183926058
 20
-112.5566801276855
 30
123.9286748108395
 70
   192
  0
VERTEX
  5
66CA
  8
0
 10
12042.05619472768
 20
-112.55668012768579
 30
126.86482566001619
 70
   192
  0
VERTEX
  5
66CB
  8
0
 10
12044.423569302509
 20
-111.02802692985949
 30
124.2959730454392
 70
   192
  0
VERTEX
  5
66CC
  8
0
 10
12043.807924769621
 20
-111.02802692985981
 30
127.2321238946158
 70
   192
  0
VERTEX
  5
66CD
  8
0
 10
12046.387777184131
 20
-109.7981839826577
 30
124.7078230851333
 70
   192
  0
VERTEX
  5
66CE
  8
0
 10
12045.77213265124
 20
-109.7981839826579
 30
127.6439739343099
 70
   192
  0
VERTEX
  5
66CF
  8
0
 10
12048.51609758855
 20
-108.89743410105621
 30
125.1540838150927
 70
   192
  0
VERTEX
  5
66D0
  8
0
 10
12047.900453055659
 20
-108.8974341010564
 30
128.0902346642693
 70
   192
  0
VERTEX
  5
66D1
  8
0
 10
12050.75612420393
 20
-108.3479567365565
 30
125.6237668150914
 70
   192
  0
VERTEX
  5
66D2
  8
0
 10
12050.140479671039
 20
-108.3479567365566
 30
128.559917664268
 70
   192
  0
VERTEX
  5
66D3
  8
0
 10
12053.05270014077
 20
-108.1632818454837
 30
126.1053069308808
 70
   192
  0
VERTEX
  5
66D4
  8
0
 10
12052.437055607879
 20
-108.1632818454837
 30
129.04145778005741
 70
   192
  0
VERTEX
  5
66D5
  8
0
 10
12055.349276077621
 20
-108.3479567365566
 30
126.5868470466702
 70
   192
  0
VERTEX
  5
66D6
  8
0
 10
12054.733631544719
 20
-108.3479567365565
 30
129.5229978958468
 70
   192
  0
VERTEX
  5
66D7
  8
0
 10
12057.58930269299
 20
-108.8974341010564
 30
127.0565300466689
 70
   192
  0
VERTEX
  5
66D8
  8
0
 10
12056.973658160099
 20
-108.89743410105621
 30
129.99268089584541
 70
   192
  0
VERTEX
  5
66D9
  8
0
 10
12059.717623097409
 20
-109.7981839826579
 30
127.5027907766283
 70
   192
  0
VERTEX
  5
66DA
  8
0
 10
12059.10197856452
 20
-109.7981839826577
 30
130.43894162580489
 70
   192
  0
VERTEX
  5
66DB
  8
0
 10
12061.681830979031
 20
-111.02802692985981
 30
127.9146408163223
 70
   192
  0
VERTEX
  5
66DC
  8
0
 10
12061.06618644614
 20
-111.02802692985949
 30
130.850791665499
 70
   192
  0
VERTEX
  5
66DD
  8
0
 10
12063.433561020969
 20
-112.55668012768579
 30
128.28193905092201
 70
   192
  0
VERTEX
  5
66DE
  8
0
 10
12062.81791648808
 20
-112.5566801276855
 30
131.2180899000987
 70
   192
  0
VERTEX
  5
66DF
  8
0
 10
12064.929679815939
 20
-114.346503061097
 30
128.59564137889831
 70
   192
  0
VERTEX
  5
66E0
  8
0
 10
12064.31403528304
 20
-114.3465030610967
 30
131.53179222807501
 70
   192
  0
VERTEX
  5
66E1
  8
0
 10
12066.133347953861
 20
-116.35342434939029
 30
128.8480234078186
 70
   192
  0
VERTEX
  5
66E2
  8
0
 10
12065.51770342097
 20
-116.3534243493901
 30
131.78417425699519
 70
   192
  0
VERTEX
  5
66E3
  8
0
 10
12067.014927130451
 20
-118.52802692985971
 30
129.03287065452199
 70
   192
  0
VERTEX
  5
66E4
  8
0
 10
12066.39928259756
 20
-118.52802692985961
 30
131.96902150369871
 70
   192
  0
VERTEX
  5
66E5
  8
0
 10
12067.552709940581
 20
-120.8167648698803
 30
129.14563156632269
 70
   192
  0
VERTEX
  5
66E6
  8
0
 10
12066.937065407679
 20
-120.8167648698802
 30
132.08178241549939
 70
   192
  0
VERTEX
  5
66E7
  8
0
 10
12067.73345438666
 20
-123.1632818454837
 30
129.18352959533999
 70
   192
  0
VERTEX
  5
66E8
  8
0
 10
12067.11780985376
 20
-123.1632818454837
 30
132.11968044451669
 70
   192
  0
VERTEX
  5
66E9
  8
0
 10
0.0
 20
0.0
 30
0.0
 70
   128
 71
    -1
 72
     3
 73
     2
  0
VERTEX
  5
66EA
  8
0
 10
0.0
 20
0.0
 30
0.0
 70
   128
 71
    -4
 72
    -3
 73
     1
  0
VERTEX
  5
66EB
  8
0
 10
0.0
 20
0.0
 30
0.0
 70
   128
 71
    -5
 72
     4
 73
     6
  0
VERTEX
  5
66EC
  8
0
 10
0.0
 20
0.0
 30
0.0
 70
   128
 71
    -3
 72
    -4
 73
     5
  0
VERTEX
  5
66ED
  8
0
 10
0.0
 20
0.0
 30
0.0
 70
   128
 71
    -6
 72
     7
 73
     5
  0
VERTEX
  5
66EE
  8
0
 10
0.0
 20
0.0
 30
0.0
 70
   128
 71
     8
 72
    -7
 73
     6
  0
VERTEX
  5
66EF
  8
0
 10
0.0
 20
0.0
 30
0.0
 70
   128
 71
    -8
 72
     9
 73
     7
  0
VERTEX
  5
66F0
  8
0
 10
0.0
 20
0.0
 30
0.0
 70
   128
 71
   -10
 72
    -9
 73
     8
  0
VERTEX
  5
66F1
  8
0
 10
0.0
 20
0.0
 30
0.0
 70
   128
 71
   -11
 72
    10
 73
    12
  0
VERTEX
  5
66F2
  8
0
 10
0.0
 20
0.0
 30
0.0
 70
   128
 71
    -9
 72
   -10
 73
    11
  0
VERTEX
  5
66F3
  8
0
 10
0.0
 20
0.0
 30
0.0
 70
   128
 71
   -12
 72
    13
 73
    11
  0
VERTEX
  5
66F4
  8
0
 10
0.0
 20
0.0
 30
0.0
 70
   128
 71
   -14
 72
   -13
 73
    12
  0
VERTEX
  5
66F5
  8
0
 10
0.0
 20
0.0
 30
0.0
 70
   128
 71
   -15
 72
    14
 73
    16
  0
VERTEX
  5
66F6
  8
0
 10
0.0
 20
0.0
 30
0.0
 70
   128
 71
   -13
 72
   -14
 73
    15
  0
VERTEX
  5
66F7
  8
0
 10
0.0
 20
0.0
 30
0.0
 70
   128
 71
   -16
 72
    17
 73
    15
  0
VERTEX
  5
66F8
  8
0
 10
0.0
 20
0.0
 30
0.0
 70
   128
 71
    18
 72
   -17
 73
    16
  0
VERTEX
  5
66F9
  8
0
 10
0.0
 20
0.0
 30
0.0
 70
   128
 71
   -18
 72
    19
 73
    17
  0
VERTEX
  5
66FA
  8
0
 10
0.0
 20
0.0
 30
0.0
 70
   128
 71
   -20
 72
   -19
 73
    18
  0
VERTEX
  5
66FB
  8
0
 10
0.0
 20
0.0
 30
0.0
 70
   128
 71
   -21
 72
    20
 73
    22
  0
VERTEX
  5
66FC
  8
0
 10
0.0
 20
0.0
 30
0.0
 70
   128
 71
   -19
 72
   -20
 73
    21
  0
VERTEX
  5
66FD
  8
0
 10
0.0
 20
0.0
 30
0.0
 70
   128
 71
   -22
 72
    23
 73
    21
  0
VERTEX
  5
66FE
  8
0
 10
0.0
 20
0.0
 30
0.0
 70
   128
 71
   -24
 72
   -23
 73
    22
  0
VERTEX
  5
66FF
  8
0
 10
0.0
 20
0.0
 30
0.0
 70
   128
 71
   -25
 72
    24
 73
    26
  0
VERTEX
  5
6700
  8
0
 10
0.0
 20
0.0
 30
0.0
 70
   128
 71
   -23
 72
   -24
 73
    25
  0
VERTEX
  5
6701
  8
0
 10
0.0
 20
0.0
 30
0.0
 70
   128
 71
   -26
 72
    27
 73
    25
  0
VERTEX
  5
6702
  8
0
 10
0.0
 20
0.0
 30
0.0
 70
   128
 71
    28
 72
   -27
 73
    26
  0
VERTEX
  5
6703
  8
0
 10
0.0
 20
0.0
 30
0.0
 70
   128
 71
   -28
 72
    29
 73
    27
  0
VERTEX
  5
6704
  8
0
 10
0.0
 20
0.0
 30
0.0
 70
   128
 71
   -30
 72
   -29
 73
    28
  0
VERTEX
  5
6705
  8
0
 10
0.0
 20
0.0
 30
0.0
 70
   128
 71
   -31
 72
    30
 73
    32
  0
VERTEX
  5
6706
  8
0
 10
0.0
 20
0.0
 30
0.0
 70
   128
 71
   -29
 72
   -30
 73
    31
  0
VERTEX
  5
6707
  8
0
 10
0.0
 20
0.0
 30
0.0
 70
   128
 71
   -32
 72
    33
 73
    31
  0
VERTEX
  5
6708
  8
0
 10
0.0
 20
0.0
 30
0.0
 70
   128
 71
   -34
 72
   -33
 73
    32
  0
VERTEX
  5
6709
  8
0
 10
0.0
 20
0.0
 30
0.0
 70
   128
 71
   -35
 72
    34
 73
    36
  0
VERTEX
  5
670A
  8
0
 10
0.0
 20
0.0
 30
0.0
 70
   128
 71
   -33
 72
   -34
 73
    35
  0
VERTEX
  5
670B
  8
0
 10
0.0
 20
0.0
 30
0.0
 70
   128
 71
   -36
 72
    37
 73
    35
  0
VERTEX
  5
670C
  8
0
 10
0.0
 20
0.0
 30
0.0
 70
   128
 71
    38
 72
   -37
 73
    36
  0
VERTEX
  5
670D
  8
0
 10
0.0
 20
0.0
 30
0.0
 70
   128
 71
   -38
 72
    39
 73
    37
  0
VERTEX
  5
670E
  8
0
 10
0.0
 20
0.0
 30
0.0
 70
   128
 71
   -40
 72
   -39
 73
    38
  0
VERTEX
  5
670F
  8
0
 10
0.0
 20
0.0
 30
0.0
 70
   128
 71
   -41
 72
    40
 73
    42
  0
VERTEX
  5
6710
  8
0
 10
0.0
 20
0.0
 30
0.0
 70
   128
 71
   -39
 72
   -40
 73
    41
  0
VERTEX
  5
6711
  8
0
 10
0.0
 20
0.0
 30
0.0
 70
   128
 71
   -42
 72
    43
 73
    41
  0
VERTEX
  5
6712
  8
0
 10
0.0
 20
0.0
 30
0.0
 70
   128
 71
   -44
 72
   -43
 73
    42
  0
VERTEX
  5
6713
  8
0
 10
0.0
 20
0.0
 30
0.0
 70
   128
 71
   -45
 72
    44
 73
    46
  0
VERTEX
  5
6714
  8
0
 10
0.0
 20
0.0
 30
0.0
 70
   128
 71
   -43
 72
   -44
 73
    45
  0
VERTEX
  5
6715
  8
0
 10
0.0
 20
0.0
 30
0.0
 70
   128
 71
   -46
 72
    47
 73
    45
  0
VERTEX
  5
6716
  8
0
 10
0.0
 20
0.0
 30
0.0
 70
   128
 71
    48
 72
   -47
 73
    46
  0
VERTEX
  5
6717
  8
0
 10
0.0
 20
0.0
 30
0.0
 70
   128
 71
   -48
 72
    49
 73
    47
  0
VERTEX
  5
6718
  8
0
 10
0.0
 20
0.0
 30
0.0
 70
   128
 71
   -50
 72
   -49
 73
    48
  0
VERTEX
  5
6719
  8
0
 10
0.0
 20
0.0
 30
0.0
 70
   128
 71
   -51
 72
    50
 73
    52
  0
VERTEX
  5
671A
  8
0
 10
0.0
 20
0.0
 30
0.0
 70
   128
 71
   -49
 72
   -50
 73
    51
  0
VERTEX
  5
671B
  8
0
 10
0.0
 20
0.0
 30
0.0
 70
   128
 71
   -52
 72
    53
 73
    51
  0
VERTEX
  5
671C
  8
0
 10
0.0
 20
0.0
 30
0.0
 70
   128
 71
   -54
 72
   -53
 73
    52
  0
VERTEX
  5
671D
  8
0
 10
0.0
 20
0.0
 30
0.0
 70
   128
 71
   -55
 72
    54
 73
    56
  0
VERTEX
  5
671E
  8
0
 10
0.0
 20
0.0
 30
0.0
 70
   128
 71
   -53
 72
   -54
 73
    55
  0
VERTEX
  5
671F
  8
0
 10
0.0
 20
0.0
 30
0.0
 70
   128
 71
   -56
 72
    57
 73
    55
  0
VERTEX
  5
6720
  8
0
 10
0.0
 20
0.0
 30
0.0
 70
   128
 71
    58
 72
   -57
 73
    56
  0
VERTEX
  5
6721
  8
0
 10
0.0
 20
0.0
 30
0.0
 70
   128
 71
   -58
 72
    59
 73
    57
  0
VERTEX
  5
6722
  8
0
 10
0.0
 20
0.0
 30
0.0
 70
   128
 71
   -60
 72
   -59
 73
    58
  0
VERTEX
  5
6723
  8
0
 10
0.0
 20
0.0
 30
0.0
 70
   128
 71
   -61
 72
    60
 73
    62
  0
VERTEX
  5
6724
  8
0
 10
0.0
 20
0.0
 30
0.0
 70
   128
 71
   -59
 72
   -60
 73
    61
  0
VERTEX
  5
6725
  8
0
 10
0.0
 20
0.0
 30
0.0
 70
   128
 71
   -62
 72
    63
 73
    61
  0
VERTEX
  5
6726
  8
0
 10
0.0
 20
0.0
 30
0.0
 70
   128
 71
   -64
 72
   -63
 73
    62
  0
VERTEX
  5
6727
  8
0
 10
0.0
 20
0.0
 30
0.0
 70
   128
 71
   -65
 72
    64
 73
    66
  0
VERTEX
  5
6728
  8
0
 10
0.0
 20
0.0
 30
0.0
 70
   128
 71
   -63
 72
   -64
 73
    65
  0
VERTEX
  5
6729
  8
0
 10
0.0
 20
0.0
 30
0.0
 70
   128
 71
   -66
 72
    67
 73
    65
  0
VERTEX
  5
672A
  8
0
 10
0.0
 20
0.0
 30
0.0
 70
   128
 71
    68
 72
   -67
 73
    66
  0
VERTEX
  5
672B
  8
0
 10
0.0
 20
0.0
 30
0.0
 70
   128
 71
   -68
 72
    69
 73
    67
  0
VERTEX
  5
672C
  8
0
 10
0.0
 20
0.0
 30
0.0
 70
   128
 71
   -70
 72
   -69
 73
    68
  0
VERTEX
  5
672D
  8
0
 10
0.0
 20
0.0
 30
0.0
 70
   128
 71
   -71
 72
    70
 73
    72
  0
VERTEX
  5
672E
  8
0
 10
0.0
 20
0.0
 30
0.0
 70
   128
 71
   -69
 72
   -70
 73
    71
  0
VERTEX
  5
672F
  8
0
 10
0.0
 20
0.0
 30
0.0
 70
   128
 71
   -72
 72
    73
 73
    71
  0
VERTEX
  5
6730
  8
0
 10
0.0
 20
0.0
 30
0.0
 70
   128
 71
   -74
 72
   -73
 73
    72
  0
VERTEX
  5
6731
  8
0
 10
0.0
 20
0.0
 30
0.0
 70
   128
 71
   -75
 72
    74
 73
    76
  0
VERTEX
  5
6732
  8
0
 10
0.0
 20
0.0
 30
0.0
 70
   128
 71
   -73
 72
   -74
 73
    75
  0
VERTEX
  5
6733
  8
0
 10
0.0
 20
0.0
 30
0.0
 70
   128
 71
   -76
 72
    77
 73
    75
  0
VERTEX
  5
6734
  8
0
 10
0.0
 20
0.0
 30
0.0
 70
   128
 71
    78
 72
   -77
 73
    76
  0
VERTEX
  5
6735
  8
0
 10
0.0
 20
0.0
 30
0.0
 70
   128
 71
   -78
 72
    79
 73
    77
  0
VERTEX
  5
6736
  8
0
 10
0.0
 20
0.0
 30
0.0
 70
   128
 71
   -80
 72
   -79
 73
    78
  0
VERTEX
  5
6737
  8
0
 10
0.0
 20
0.0
 30
0.0
 70
   128
 71
   -81
 72
    80
 73
    82
  0
VERTEX
  5
6738
  8
0
 10
0.0
 20
0.0
 30
0.0
 70
   128
 71
   -79
 72
   -80
 73
    81
  0
SEQEND
  5
6739
  8
0
  0
POLYLINE
  5
673A
  8
0
 66
     1
 10
0.0
 20
0.0
 30
0.0
 70
    64
 71
    40
 72
    38
  0
VERTEX
  5
673B
  8
0
 10
12038.55269034097
 20
-120.8167648698802
 30
123.0649822954385
 70
   192
  0
VERTEX
  5
673C
  8
0
 10
12038.371945894891
 20
-123.1632818454836
 30
123.0270842664212
 70
   192
  0
VERTEX
  5
673D
  8
0
 10
12038.55269034097
 20
-125.5097988210871
 30
123.0649822954385
 70
   192
  0
VERTEX
  5
673E
  8
0
 10
12039.0904731511
 20
-127.7985367611079
 30
123.177743207239
 70
   192
  0
VERTEX
  5
673F
  8
0
 10
12039.972052327679
 20
-129.9731393415768
 30
123.3625904539429
 70
   192
  0
VERTEX
  5
6740
  8
0
 10
12041.17572046561
 20
-131.98006062987071
 30
123.6149724828629
 70
   192
  0
VERTEX
  5
6741
  8
0
 10
12042.671839260571
 20
-133.76988356328181
 30
123.9286748108392
 70
   192
  0
VERTEX
  5
6742
  8
0
 10
12044.423569302509
 20
-135.29853676110781
 30
124.2959730454389
 70
   192
  0
VERTEX
  5
6743
  8
0
 10
12046.387777184131
 20
-136.5283797083091
 30
124.7078230851333
 70
   192
  0
VERTEX
  5
6744
  8
0
 10
12048.51609758855
 20
-137.4291295899109
 30
125.15408381509251
 70
   192
  0
VERTEX
  5
6745
  8
0
 10
12050.75612420393
 20
-137.97860695441071
 30
125.6237668150914
 70
   192
  0
VERTEX
  5
6746
  8
0
 10
12053.05270014077
 20
-138.1632818454836
 30
126.1053069308804
 70
   192
  0
VERTEX
  5
6747
  8
0
 10
12055.34927607761
 20
-137.97860695441071
 30
126.5868470466699
 70
   192
  0
VERTEX
  5
6748
  8
0
 10
12057.58930269299
 20
-137.4291295899109
 30
127.0565300466687
 70
   192
  0
VERTEX
  5
6749
  8
0
 10
12059.717623097409
 20
-136.5283797083091
 30
127.50279077662751
 70
   192
  0
VERTEX
  5
674A
  8
0
 10
12061.681830979031
 20
-135.29853676110781
 30
127.9146408163223
 70
   192
  0
VERTEX
  5
674B
  8
0
 10
12063.433561020969
 20
-133.76988356328181
 30
128.28193905092209
 70
   192
  0
VERTEX
  5
674C
  8
0
 10
12064.92967981593
 20
-131.98006062987071
 30
128.59564137889839
 70
   192
  0
VERTEX
  5
674D
  8
0
 10
12066.133347953861
 20
-129.9731393415768
 30
128.848023407818
 70
   192
  0
VERTEX
  5
674E
  8
0
 10
12067.014927130451
 20
-127.7985367611079
 30
129.0328706545219
 70
   192
  0
VERTEX
  5
674F
  8
0
 10
12067.55270994057
 20
-125.5097988210871
 30
129.14563156632269
 70
   192
  0
VERTEX
  5
6750
  8
0
 10
12067.733454386649
 20
-123.1632818454836
 30
129.18352959533971
 70
   192
  0
VERTEX
  5
6751
  8
0
 10
12067.55270994057
 20
-120.8167648698802
 30
129.14563156632269
 70
   192
  0
VERTEX
  5
6752
  8
0
 10
12067.014927130451
 20
-118.52802692985939
 30
129.0328706545219
 70
   192
  0
VERTEX
  5
6753
  8
0
 10
12066.133347953861
 20
-116.35342434939039
 30
128.848023407818
 70
   192
  0
VERTEX
  5
6754
  8
0
 10
12064.92967981593
 20
-114.3465030610965
 30
128.59564137889839
 70
   192
  0
VERTEX
  5
6755
  8
0
 10
12063.433561020969
 20
-112.5566801276854
 30
128.28193905092209
 70
   192
  0
VERTEX
  5
6756
  8
0
 10
12061.681830979031
 20
-111.02802692985939
 30
127.9146408163223
 70
   192
  0
VERTEX
  5
6757
  8
0
 10
12059.717623097409
 20
-109.7981839826581
 30
127.50279077662751
 70
   192
  0
VERTEX
  5
6758
  8
0
 10
12057.58930269299
 20
-108.89743410105631
 30
127.0565300466687
 70
   192
  0
VERTEX
  5
6759
  8
0
 10
12055.34927607761
 20
-108.3479567365566
 30
126.5868470466699
 70
   192
  0
VERTEX
  5
675A
  8
0
 10
12053.05270014077
 20
-108.1632818454836
 30
126.1053069308804
 70
   192
  0
VERTEX
  5
675B
  8
0
 10
12050.75612420393
 20
-108.3479567365566
 30
125.6237668150914
 70
   192
  0
VERTEX
  5
675C
  8
0
 10
12048.51609758855
 20
-108.89743410105631
 30
125.15408381509251
 70
   192
  0
VERTEX
  5
675D
  8
0
 10
12046.387777184131
 20
-109.7981839826581
 30
124.7078230851333
 70
   192
  0
VERTEX
  5
675E
  8
0
 10
12044.423569302509
 20
-111.02802692985939
 30
124.2959730454389
 70
   192
  0
VERTEX
  5
675F
  8
0
 10
12042.671839260571
 20
-112.5566801276854
 30
123.9286748108392
 70
   192
  0
VERTEX
  5
6760
  8
0
 10
12041.17572046561
 20
-114.3465030610965
 30
123.6149724828629
 70
   192
  0
VERTEX
  5
6761
  8
0
 10
12039.972052327679
 20
-116.35342434939039
 30
123.3625904539429
 70
   192
  0
VERTEX
  5
6762
  8
0
 10
12039.0904731511
 20
-118.52802692985939
 30
123.177743207239
 70
   192
  0
VERTEX
  5
6763
  8
0
 10
0.0
 20
0.0
 30
0.0
 70
   128
 71
    -1
 72
     3
 73
     2
  0
VERTEX
  5
6764
  8
0
 10
0.0
 20
0.0
 30
0.0
 70
   128
 71
    -1
 72
     4
 73
    -3
  0
VERTEX
  5
6765
  8
0
 10
0.0
 20
0.0
 30
0.0
 70
   128
 71
    -1
 72
     5
 73
    -4
  0
VERTEX
  5
6766
  8
0
 10
0.0
 20
0.0
 30
0.0
 70
   128
 71
    -1
 72
     6
 73
    -5
  0
VERTEX
  5
6767
  8
0
 10
0.0
 20
0.0
 30
0.0
 70
   128
 71
    -1
 72
     7
 73
    -6
  0
VERTEX
  5
6768
  8
0
 10
0.0
 20
0.0
 30
0.0
 70
   128
 71
    -1
 72
     8
 73
    -7
  0
VERTEX
  5
6769
  8
0
 10
0.0
 20
0.0
 30
0.0
 70
   128
 71
    -1
 72
     9
 73
    -8
  0
VERTEX
  5
676A
  8
0
 10
0.0
 20
0.0
 30
0.0
 70
   128
 71
    -1
 72
    10
 73
    -9
  0
VERTEX
  5
676B
  8
0
 10
0.0
 20
0.0
 30
0.0
 70
   128
 71
    -1
 72
    11
 73
   -10
  0
VERTEX
  5
676C
  8
0
 10
0.0
 20
0.0
 30
0.0
 70
   128
 71
    -1
 72
    12
 73
   -11
  0
VERTEX
  5
676D
  8
0
 10
0.0
 20
0.0
 30
0.0
 70
   128
 71
    -1
 72
    13
 73
   -12
  0
VERTEX
  5
676E
  8
0
 10
0.0
 20
0.0
 30
0.0
 70
   128
 71
    -1
 72
    14
 73
   -13
  0
VERTEX
  5
676F
  8
0
 10
0.0
 20
0.0
 30
0.0
 70
   128
 71
    -1
 72
    15
 73
   -14
  0
VERTEX
  5
6770
  8
0
 10
0.0
 20
0.0
 30
0.0
 70
   128
 71
    -1
 72
    16
 73
   -15
  0
VERTEX
  5
6771
  8
0
 10
0.0
 20
0.0
 30
0.0
 70
   128
 71
    -1
 72
    17
 73
   -16
  0
VERTEX
  5
6772
  8
0
 10
0.0
 20
0.0
 30
0.0
 70
   128
 71
    -1
 72
    18
 73
   -17
  0
VERTEX
  5
6773
  8
0
 10
0.0
 20
0.0
 30
0.0
 70
   128
 71
    -1
 72
    19
 73
   -18
  0
VERTEX
  5
6774
  8
0
 10
0.0
 20
0.0
 30
0.0
 70
   128
 71
    -1
 72
    20
 73
   -19
  0
VERTEX
  5
6775
  8
0
 10
0.0
 20
0.0
 30
0.0
 70
   128
 71
    -1
 72
    21
 73
   -20
  0
VERTEX
  5
6776
  8
0
 10
0.0
 20
0.0
 30
0.0
 70
   128
 71
    -1
 72
    22
 73
   -21
  0
VERTEX
  5
6777
  8
0
 10
0.0
 20
0.0
 30
0.0
 70
   128
 71
    -1
 72
    23
 73
   -22
  0
VERTEX
  5
6778
  8
0
 10
0.0
 20
0.0
 30
0.0
 70
   128
 71
    -1
 72
    24
 73
   -23
  0
VERTEX
  5
6779
  8
0
 10
0.0
 20
0.0
 30
0.0
 70
   128
 71
    -1
 72
    25
 73
   -24
  0
VERTEX
  5
677A
  8
0
 10
0.0
 20
0.0
 30
0.0
 70
   128
 71
    -1
 72
    26
 73
   -25
  0
VERTEX
  5
677B
  8
0
 10
0.0
 20
0.0
 30
0.0
 70
   128
 71
    -1
 72
    27
 73
   -26
  0
VERTEX
  5
677C
  8
0
 10
0.0
 20
0.0
 30
0.0
 70
   128
 71
    -1
 72
    28
 73
   -27
  0
VERTEX
  5
677D
  8
0
 10
0.0
 20
0.0
 30
0.0
 70
   128
 71
    -1
 72
    29
 73
   -28
  0
VERTEX
  5
677E
  8
0
 10
0.0
 20
0.0
 30
0.0
 70
   128
 71
    -1
 72
    30
 73
   -29
  0
VERTEX
  5
677F
  8
0
 10
0.0
 20
0.0
 30
0.0
 70
   128
 71
    -1
 72
    31
 73
   -30
  0
VERTEX
  5
6780
  8
0
 10
0.0
 20
0.0
 30
0.0
 70
   128
 71
    -1
 72
    32
 73
   -31
  0
VERTEX
  5
6781
  8
0
 10
0.0
 20
0.0
 30
0.0
 70
   128
 71
    -1
 72
    33
 73
   -32
  0
VERTEX
  5
6782
  8
0
 10
0.0
 20
0.0
 30
0.0
 70
   128
 71
    -1
 72
    34
 73
   -33
  0
VERTEX
  5
6783
  8
0
 10
0.0
 20
0.0
 30
0.0
 70
   128
 71
    -1
 72
    35
 73
   -34
  0
VERTEX
  5
6784
  8
0
 10
0.0
 20
0.0
 30
0.0
 70
   128
 71
    -1
 72
    36
 73
   -35
  0
VERTEX
  5
6785
  8
0
 10
0.0
 20
0.0
 30
0.0
 70
   128
 71
    -1
 72
    37
 73
   -36
  0
VERTEX
  5
6786
  8
0
 10
0.0
 20
0.0
 30
0.0
 70
   128
 71
    -1
 72
    38
 73
   -37
  0
VERTEX
  5
6787
  8
0
 10
0.0
 20
0.0
 30
0.0
 70
   128
 71
    -1
 72
    39
 73
   -38
  0
VERTEX
  5
6788
  8
0
 10
0.0
 20
0.0
 30
0.0
 70
   128
 71
     1
 72
    40
 73
   -39
  0
SEQEND
  5
6789
  8
0
  0
POLYLINE
  5
678A
  8
0
 66
     1
 10
0.0
 20
0.0
 30
0.0
 70
    64
 71
    40
 72
    38
  0
VERTEX
  5
678B
  8
0
 10
12037.937045808079
 20
-125.5097988210871
 30
126.0011331446151
 70
   192
  0
VERTEX
  5
678C
  8
0
 10
12037.756301362
 20
-123.1632818454836
 30
125.9632351155981
 70
   192
  0
VERTEX
  5
678D
  8
0
 10
12037.937045808079
 20
-120.8167648698802
 30
126.0011331446151
 70
   192
  0
VERTEX
  5
678E
  8
0
 10
12038.4748286182
 20
-118.52802692985939
 30
126.1138940564156
 70
   192
  0
VERTEX
  5
678F
  8
0
 10
12039.35640779479
 20
-116.35342434939039
 30
126.2987413031198
 70
   192
  0
VERTEX
  5
6790
  8
0
 10
12040.560075932721
 20
-114.3465030610965
 30
126.5511233320395
 70
   192
  0
VERTEX
  5
6791
  8
0
 10
12042.05619472768
 20
-112.5566801276854
 30
126.86482566001609
 70
   192
  0
VERTEX
  5
6792
  8
0
 10
12043.807924769621
 20
-111.02802692985939
 30
127.2321238946155
 70
   192
  0
VERTEX
  5
6793
  8
0
 10
12045.77213265124
 20
-109.7981839826581
 30
127.6439739343099
 70
   192
  0
VERTEX
  5
6794
  8
0
 10
12047.900453055659
 20
-108.89743410105631
 30
128.09023466426899
 70
   192
  0
VERTEX
  5
6795
  8
0
 10
12050.140479671039
 20
-108.3479567365566
 30
128.55991766426791
 70
   192
  0
VERTEX
  5
6796
  8
0
 10
12052.437055607879
 20
-108.1632818454836
 30
129.04145778005741
 70
   192
  0
VERTEX
  5
6797
  8
0
 10
12054.733631544719
 20
-108.3479567365566
 30
129.52299789584649
 70
   192
  0
VERTEX
  5
6798
  8
0
 10
12056.973658160099
 20
-108.89743410105631
 30
129.9926808958453
 70
   192
  0
VERTEX
  5
6799
  8
0
 10
12059.10197856452
 20
-109.7981839826581
 30
130.43894162580449
 70
   192
  0
VERTEX
  5
679A
  8
0
 10
12061.06618644614
 20
-111.02802692985939
 30
130.85079166549889
 70
   192
  0
VERTEX
  5
679B
  8
0
 10
12062.81791648808
 20
-112.5566801276854
 30
131.21808990009859
 70
   192
  0
VERTEX
  5
679C
  8
0
 10
12064.31403528304
 20
-114.3465030610965
 30
131.53179222807529
 70
   192
  0
VERTEX
  5
679D
  8
0
 10
12065.51770342097
 20
-116.35342434939039
 30
131.78417425699459
 70
   192
  0
VERTEX
  5
679E
  8
0
 10
12066.39928259756
 20
-118.52802692985939
 30
131.96902150369891
 70
   192
  0
VERTEX
  5
679F
  8
0
 10
12066.937065407679
 20
-120.8167648698802
 30
132.0817824154997
 70
   192
  0
VERTEX
  5
67A0
  8
0
 10
12067.11780985376
 20
-123.1632818454836
 30
132.11968044451669
 70
   192
  0
VERTEX
  5
67A1
  8
0
 10
12066.937065407679
 20
-125.5097988210871
 30
132.0817824154997
 70
   192
  0
VERTEX
  5
67A2
  8
0
 10
12066.39928259756
 20
-127.7985367611079
 30
131.96902150369891
 70
   192
  0
VERTEX
  5
67A3
  8
0
 10
12065.51770342097
 20
-129.9731393415768
 30
131.78417425699459
 70
   192
  0
VERTEX
  5
67A4
  8
0
 10
12064.31403528304
 20
-131.98006062987071
 30
131.53179222807529
 70
   192
  0
VERTEX
  5
67A5
  8
0
 10
12062.81791648808
 20
-133.76988356328181
 30
131.21808990009859
 70
   192
  0
VERTEX
  5
67A6
  8
0
 10
12061.06618644614
 20
-135.29853676110781
 30
130.85079166549889
 70
   192
  0
VERTEX
  5
67A7
  8
0
 10
12059.10197856452
 20
-136.5283797083091
 30
130.43894162580449
 70
   192
  0
VERTEX
  5
67A8
  8
0
 10
12056.973658160099
 20
-137.4291295899109
 30
129.9926808958453
 70
   192
  0
VERTEX
  5
67A9
  8
0
 10
12054.733631544719
 20
-137.97860695441071
 30
129.52299789584649
 70
   192
  0
VERTEX
  5
67AA
  8
0
 10
12052.437055607879
 20
-138.1632818454836
 30
129.04145778005741
 70
   192
  0
VERTEX
  5
67AB
  8
0
 10
12050.140479671039
 20
-137.97860695441071
 30
128.55991766426791
 70
   192
  0
VERTEX
  5
67AC
  8
0
 10
12047.900453055659
 20
-137.4291295899109
 30
128.09023466426899
 70
   192
  0
VERTEX
  5
67AD
  8
0
 10
12045.77213265124
 20
-136.5283797083091
 30
127.6439739343099
 70
   192
  0
VERTEX
  5
67AE
  8
0
 10
12043.807924769621
 20
-135.29853676110781
 30
127.2321238946155
 70
   192
  0
VERTEX
  5
67AF
  8
0
 10
12042.05619472768
 20
-133.76988356328181
 30
126.86482566001609
 70
   192
  0
VERTEX
  5
67B0
  8
0
 10
12040.560075932721
 20
-131.98006062987071
 30
126.5511233320395
 70
   192
  0
VERTEX
  5
67B1
  8
0
 10
12039.35640779479
 20
-129.9731393415768
 30
126.2987413031198
 70
   192
  0
VERTEX
  5
67B2
  8
0
 10
12038.4748286182
 20
-127.7985367611079
 30
126.1138940564156
 70
   192
  0
VERTEX
  5
67B3
  8
0
 10
0.0
 20
0.0
 30
0.0
 70
   128
 71
    -1
 72
     3
 73
     2
  0
VERTEX
  5
67B4
  8
0
 10
0.0
 20
0.0
 30
0.0
 70
   128
 71
    -1
 72
     4
 73
    -3
  0
VERTEX
  5
67B5
  8
0
 10
0.0
 20
0.0
 30
0.0
 70
   128
 71
    -1
 72
     5
 73
    -4
  0
VERTEX
  5
67B6
  8
0
 10
0.0
 20
0.0
 30
0.0
 70
   128
 71
    -1
 72
     6
 73
    -5
  0
VERTEX
  5
67B7
  8
0
 10
0.0
 20
0.0
 30
0.0
 70
   128
 71
    -1
 72
     7
 73
    -6
  0
VERTEX
  5
67B8
  8
0
 10
0.0
 20
0.0
 30
0.0
 70
   128
 71
    -1
 72
     8
 73
    -7
  0
VERTEX
  5
67B9
  8
0
 10
0.0
 20
0.0
 30
0.0
 70
   128
 71
    -1
 72
     9
 73
    -8
  0
VERTEX
  5
67BA
  8
0
 10
0.0
 20
0.0
 30
0.0
 70
   128
 71
    -1
 72
    10
 73
    -9
  0
VERTEX
  5
67BB
  8
0
 10
0.0
 20
0.0
 30
0.0
 70
   128
 71
    -1
 72
    11
 73
   -10
  0
VERTEX
  5
67BC
  8
0
 10
0.0
 20
0.0
 30
0.0
 70
   128
 71
    -1
 72
    12
 73
   -11
  0
VERTEX
  5
67BD
  8
0
 10
0.0
 20
0.0
 30
0.0
 70
   128
 71
    -1
 72
    13
 73
   -12
  0
VERTEX
  5
67BE
  8
0
 10
0.0
 20
0.0
 30
0.0
 70
   128
 71
    -1
 72
    14
 73
   -13
  0
VERTEX
  5
67BF
  8
0
 10
0.0
 20
0.0
 30
0.0
 70
   128
 71
    -1
 72
    15
 73
   -14
  0
VERTEX
  5
67C0
  8
0
 10
0.0
 20
0.0
 30
0.0
 70
   128
 71
    -1
 72
    16
 73
   -15
  0
VERTEX
  5
67C1
  8
0
 10
0.0
 20
0.0
 30
0.0
 70
   128
 71
    -1
 72
    17
 73
   -16
  0
VERTEX
  5
67C2
  8
0
 10
0.0
 20
0.0
 30
0.0
 70
   128
 71
    -1
 72
    18
 73
   -17
  0
VERTEX
  5
67C3
  8
0
 10
0.0
 20
0.0
 30
0.0
 70
   128
 71
    -1
 72
    19
 73
   -18
  0
VERTEX
  5
67C4
  8
0
 10
0.0
 20
0.0
 30
0.0
 70
   128
 71
    -1
 72
    20
 73
   -19
  0
VERTEX
  5
67C5
  8
0
 10
0.0
 20
0.0
 30
0.0
 70
   128
 71
    -1
 72
    21
 73
   -20
  0
VERTEX
  5
67C6
  8
0
 10
0.0
 20
0.0
 30
0.0
 70
   128
 71
    -1
 72
    22
 73
   -21
  0
VERTEX
  5
67C7
  8
0
 10
0.0
 20
0.0
 30
0.0
 70
   128
 71
    -1
 72
    23
 73
   -22
  0
VERTEX
  5
67C8
  8
0
 10
0.0
 20
0.0
 30
0.0
 70
   128
 71
    -1
 72
    24
 73
   -23
  0
VERTEX
  5
67C9
  8
0
 10
0.0
 20
0.0
 30
0.0
 70
   128
 71
    -1
 72
    25
 73
   -24
  0
VERTEX
  5
67CA
  8
0
 10
0.0
 20
0.0
 30
0.0
 70
   128
 71
    -1
 72
    26
 73
   -25
  0
VERTEX
  5
67CB
  8
0
 10
0.0
 20
0.0
 30
0.0
 70
   128
 71
    -1
 72
    27
 73
   -26
  0
VERTEX
  5
67CC
  8
0
 10
0.0
 20
0.0
 30
0.0
 70
   128
 71
    -1
 72
    28
 73
   -27
  0
VERTEX
  5
67CD
  8
0
 10
0.0
 20
0.0
 30
0.0
 70
   128
 71
    -1
 72
    29
 73
   -28
  0
VERTEX
  5
67CE
  8
0
 10
0.0
 20
0.0
 30
0.0
 70
   128
 71
    -1
 72
    30
 73
   -29
  0
VERTEX
  5
67CF
  8
0
 10
0.0
 20
0.0
 30
0.0
 70
   128
 71
    -1
 72
    31
 73
   -30
  0
VERTEX
  5
67D0
  8
0
 10
0.0
 20
0.0
 30
0.0
 70
   128
 71
    -1
 72
    32
 73
   -31
  0
VERTEX
  5
67D1
  8
0
 10
0.0
 20
0.0
 30
0.0
 70
   128
 71
    -1
 72
    33
 73
   -32
  0
VERTEX
  5
67D2
  8
0
 10
0.0
 20
0.0
 30
0.0
 70
   128
 71
    -1
 72
    34
 73
   -33
  0
VERTEX
  5
67D3
  8
0
 10
0.0
 20
0.0
 30
0.0
 70
   128
 71
    -1
 72
    35
 73
   -34
  0
VERTEX
  5
67D4
  8
0
 10
0.0
 20
0.0
 30
0.0
 70
   128
 71
    -1
 72
    36
 73
   -35
  0
VERTEX
  5
67D5
  8
0
 10
0.0
 20
0.0
 30
0.0
 70
   128
 71
    -1
 72
    37
 73
   -36
  0
VERTEX
  5
67D6
  8
0
 10
0.0
 20
0.0
 30
0.0
 70
   128
 71
    -1
 72
    38
 73
   -37
  0
VERTEX
  5
67D7
  8
0
 10
0.0
 20
0.0
 30
0.0
 70
   128
 71
    -1
 72
    39
 73
   -38
  0
VERTEX
  5
67D8
  8
0
 10
0.0
 20
0.0
 30
0.0
 70
   128
 71
     1
 72
    40
 73
   -39
  0
SEQEND
  5
67D9
  8
0
  0
ENDBLK
  5
6924
  8
0
  0
BLOCK
  8
0
  2
*X24
 70
     1
 10
0.0
 20
0.0
 30
0.0
  3
*X24
  1

  0
POLYLINE
  5
60E7
  8
0
 66
     1
 10
0.0
 20
0.0
 30
0.0
 70
    64
 71
    82
 72
    80
  0
VERTEX
  5
60E8
  8
0
 10
11825.643343930629
 20
-12286.565673648531
 30
214.94530476881931
 70
   192
  0
VERTEX
  5
60E9
  8
0
 10
11826.345391986761
 20
-12287.2829883495
 30
211.59707557806331
 70
   192
  0
VERTEX
  5
60EA
  8
0
 10
11824.05659328804
 20
-12287.10224390342
 30
211.0784440189135
 70
   192
  0
VERTEX
  5
60EB
  8
0
 10
11823.354545231919
 20
-12286.38492920245
 30
214.4266732096695
 70
   192
  0
VERTEX
  5
60EC
  8
0
 10
11821.839706885619
 20
-12286.56446109329
 30
210.49840000326901
 70
   192
  0
VERTEX
  5
60ED
  8
0
 10
11821.137658829501
 20
-12285.847146392331
 30
213.84662919402501
 70
   192
  0
VERTEX
  5
60EE
  8
0
 10
11819.749319880149
 20
-12285.682881916709
 30
209.87122613985079
 70
   192
  0
VERTEX
  5
60EF
  8
0
 10
11819.047271824031
 20
-12284.965567215741
 30
213.21945533060671
 70
   192
  0
VERTEX
  5
60F0
  8
0
 10
11817.8369045373
 20
-12284.479213778781
 30
209.21236553064639
 70
   192
  0
VERTEX
  5
60F1
  8
0
 10
11817.13485648118
 20
-12283.76189907781
 30
212.56059472140231
 70
   192
  0
VERTEX
  5
60F2
  8
0
 10
11816.149550869761
 20
-12282.98309498382
 30
208.53804151048789
 70
   192
  0
VERTEX
  5
60F3
  8
0
 10
11815.447502813629
 20
-12282.265780282851
 30
211.88627070124369
 70
   192
  0
VERTEX
  5
60F4
  8
0
 10
11814.72880712482
 20
-12281.231364941879
 30
207.86485817470461
 70
   192
  0
VERTEX
  5
60F5
  8
0
 10
11814.026759068691
 20
-12280.51405024091
 30
211.21308736546041
 70
   192
  0
VERTEX
  5
60F6
  8
0
 10
11813.60965672866
 20
-12279.26715706026
 30
207.20939153119059
 70
   192
  0
VERTEX
  5
60F7
  8
0
 10
11812.907608672531
 20
-12278.549842359291
 30
210.55762072194639
 70
   192
  0
VERTEX
  5
60F8
  8
0
 10
11812.81965687829
 20
-12277.13883665584
 30
206.58778134407899
 70
   192
  0
VERTEX
  5
60F9
  8
0
 10
11812.11760882216
 20
-12276.42152195487
 30
209.93601053483479
 70
   192
  0
VERTEX
  5
60FA
  8
0
 10
11812.37825999187
 20
-12274.89881004046
 30
206.0153337191816
 70
   192
  0
VERTEX
  5
60FB
  8
0
 10
11811.67621193575
 20
-12274.18149533949
 30
209.3635629099374
 70
   192
  0
VERTEX
  5
60FC
  8
0
 10
11812.296334725679
 20
-12272.602234103621
 30
205.50614421686851
 70
   192
  0
VERTEX
  5
60FD
  8
0
 10
11811.59428666955
 20
-12271.88491940265
 30
208.85437340762431
 70
   192
  0
VERTEX
  5
60FE
  8
0
 10
11812.575898351641
 20
-12270.305658166781
 30
205.07275077259001
 70
   192
  0
VERTEX
  5
60FF
  8
0
 10
11811.87385029552
 20
-12269.58834346581
 30
208.42097996334579
 70
   192
  0
VERTEX
  5
6100
  8
0
 10
11813.21006708548
 20
-12268.065631551401
 30
204.725824971294
 70
   192
  0
VERTEX
  5
6101
  8
0
 10
11812.508019029359
 20
-12267.34831685043
 30
208.0740541620498
 70
   192
  0
VERTEX
  5
6102
  8
0
 10
11814.183225588289
 20
-12265.937311146979
 30
204.4739092775892
 70
   192
  0
VERTEX
  5
6103
  8
0
 10
11813.48117753216
 20
-12265.219996446011
 30
207.82213846834509
 70
   192
  0
VERTEX
  5
6104
  8
0
 10
11815.471411467979
 20
-12263.973103265351
 30
204.3232066919158
 70
   192
  0
VERTEX
  5
6105
  8
0
 10
11814.76936341186
 20
-12263.255788564389
 30
207.67143588267169
 70
   192
  0
VERTEX
  5
6106
  8
0
 10
11817.04290531297
 20
-12262.22137322342
 30
204.27742801208501
 70
   192
  0
VERTEX
  5
6107
  8
0
 10
11816.340857256841
 20
-12261.504058522451
 30
207.62565720284101
 70
   192
  0
VERTEX
  5
6108
  8
0
 10
11818.859011729301
 20
-12260.72525442846
 30
204.3377004611261
 70
   192
  0
VERTEX
  5
6109
  8
0
 10
11818.156963673169
 20
-12260.007939727489
 30
207.68592965188219
 70
   192
  0
VERTEX
  5
610A
  8
0
 10
11820.875012149691
 20
-12259.52158629053
 30
204.50253993130951
 70
   192
  0
VERTEX
  5
610B
  8
0
 10
11820.172964093559
 20
-12258.804271589561
 30
207.8507691220656
 70
   192
  0
VERTEX
  5
610C
  8
0
 10
11823.041265953059
 20
-12258.640007113951
 30
204.7678875278103
 70
   192
  0
VERTEX
  5
610D
  8
0
 10
11822.33921789693
 20
-12257.92269241298
 30
208.11611671856639
 70
   192
  0
VERTEX
  5
610E
  8
0
 10
11825.30443278139
 20
-12258.102224303821
 30
205.12720951216309
 70
   192
  0
VERTEX
  5
610F
  8
0
 10
11824.602384725271
 20
-12257.38490960285
 30
208.47543870291921
 70
   192
  0
VERTEX
  5
6110
  8
0
 10
11827.608785737601
 20
-12257.92147985774
 30
205.571658138723
 70
   192
  0
VERTEX
  5
6111
  8
0
 10
11826.906737681469
 20
-12257.204165156771
 30
208.919887329479
 70
   192
  0
VERTEX
  5
6112
  8
0
 10
11829.89758465508
 20
-12258.102224303821
 30
206.09028974374189
 70
   192
  0
VERTEX
  5
6113
  8
0
 10
11829.195536598951
 20
-12257.38490960285
 30
209.43851893449789
 70
   192
  0
VERTEX
  5
6114
  8
0
 10
11832.114471057501
 20
-12258.640007113951
 30
206.67033375938641
 70
   192
  0
VERTEX
  5
6115
  8
0
 10
11831.412423001369
 20
-12257.92269241298
 30
210.01856295014241
 70
   192
  0
VERTEX
  5
6116
  8
0
 10
11834.204858062971
 20
-12259.52158629053
 30
207.29750762280469
 70
   192
  0
VERTEX
  5
6117
  8
0
 10
11833.502810006839
 20
-12258.804271589561
 30
210.6457368135606
 70
   192
  0
VERTEX
  5
6118
  8
0
 10
11836.11727340582
 20
-12260.72525442846
 30
207.95636823200911
 70
   192
  0
VERTEX
  5
6119
  8
0
 10
11835.41522534969
 20
-12260.007939727489
 30
211.304597422765
 70
   192
  0
VERTEX
  5
611A
  8
0
 10
11837.804627073359
 20
-12262.22137322342
 30
208.63069225216771
 70
   192
  0
VERTEX
  5
611B
  8
0
 10
11837.102579017241
 20
-12261.504058522451
 30
211.97892144292351
 70
   192
  0
VERTEX
  5
611C
  8
0
 10
11839.225370818311
 20
-12263.973103265351
 30
209.30387558795101
 70
   192
  0
VERTEX
  5
611D
  8
0
 10
11838.523322762179
 20
-12263.255788564389
 30
212.65210477870681
 70
   192
  0
VERTEX
  5
611E
  8
0
 10
11840.34452121446
 20
-12265.937311146979
 30
209.959342231465
 70
   192
  0
VERTEX
  5
611F
  8
0
 10
11839.64247315833
 20
-12265.219996446011
 30
213.30757142222069
 70
   192
  0
VERTEX
  5
6120
  8
0
 10
11841.134521064831
 20
-12268.065631551401
 30
210.5809524185766
 70
   192
  0
VERTEX
  5
6121
  8
0
 10
11840.43247300871
 20
-12267.34831685043
 30
213.9291816093324
 70
   192
  0
VERTEX
  5
6122
  8
0
 10
11841.57591795125
 20
-12270.305658166781
 30
211.15340004347399
 70
   192
  0
VERTEX
  5
6123
  8
0
 10
11840.87386989512
 20
-12269.58834346581
 30
214.5016292342298
 70
   192
  0
VERTEX
  5
6124
  8
0
 10
11841.657843217439
 20
-12272.602234103621
 30
211.66258954578711
 70
   192
  0
VERTEX
  5
6125
  8
0
 10
11840.955795161321
 20
-12271.88491940265
 30
215.01081873654289
 70
   192
  0
VERTEX
  5
6126
  8
0
 10
11841.378279591479
 20
-12274.89881004046
 30
212.09598299006561
 70
   192
  0
VERTEX
  5
6127
  8
0
 10
11840.67623153535
 20
-12274.18149533949
 30
215.44421218082141
 70
   192
  0
VERTEX
  5
6128
  8
0
 10
11840.74411085764
 20
-12277.13883665584
 30
212.44290879136159
 70
   192
  0
VERTEX
  5
6129
  8
0
 10
11840.042062801511
 20
-12276.42152195487
 30
215.79113798211739
 70
   192
  0
VERTEX
  5
612A
  8
0
 10
11839.770952354829
 20
-12279.26715706026
 30
212.69482448506619
 70
   192
  0
VERTEX
  5
612B
  8
0
 10
11839.068904298711
 20
-12278.549842359291
 30
216.04305367582219
 70
   192
  0
VERTEX
  5
612C
  8
0
 10
11838.482766475139
 20
-12281.231364941879
 30
212.84552707073971
 70
   192
  0
VERTEX
  5
612D
  8
0
 10
11837.78071841901
 20
-12280.51405024091
 30
216.19375626149559
 70
   192
  0
VERTEX
  5
612E
  8
0
 10
11836.91127263015
 20
-12282.98309498382
 30
212.89130575057041
 70
   192
  0
VERTEX
  5
612F
  8
0
 10
11836.20922457402
 20
-12282.265780282851
 30
216.23953494132641
 70
   192
  0
VERTEX
  5
6130
  8
0
 10
11835.09516621382
 20
-12284.479213778781
 30
212.8310333015292
 70
   192
  0
VERTEX
  5
6131
  8
0
 10
11834.393118157701
 20
-12283.76189907781
 30
216.17926249228529
 70
   192
  0
VERTEX
  5
6132
  8
0
 10
11833.079165793441
 20
-12285.682881916709
 30
212.66619383134579
 70
   192
  0
VERTEX
  5
6133
  8
0
 10
11832.377117737309
 20
-12284.965567215741
 30
216.01442302210191
 70
   192
  0
VERTEX
  5
6134
  8
0
 10
11830.912911990061
 20
-12286.56446109329
 30
212.40084623484501
 70
   192
  0
VERTEX
  5
6135
  8
0
 10
11830.21086393394
 20
-12285.847146392331
 30
215.74907542560109
 70
   192
  0
VERTEX
  5
6136
  8
0
 10
11828.649745161731
 20
-12287.10224390342
 30
212.0415242504921
 70
   192
  0
VERTEX
  5
6137
  8
0
 10
11827.947697105599
 20
-12286.38492920245
 30
215.3897534412483
 70
   192
  0
VERTEX
  5
6138
  8
0
 10
11826.345391986761
 20
-12287.2829883495
 30
211.59707557806331
 70
   192
  0
VERTEX
  5
6139
  8
0
 10
11825.643343930629
 20
-12286.565673648531
 30
214.94530476881931
 70
   192
  0
VERTEX
  5
613A
  8
0
 10
0.0
 20
0.0
 30
0.0
 70
   128
 71
    -1
 72
     3
 73
     2
  0
VERTEX
  5
613B
  8
0
 10
0.0
 20
0.0
 30
0.0
 70
   128
 71
    -4
 72
    -3
 73
     1
  0
VERTEX
  5
613C
  8
0
 10
0.0
 20
0.0
 30
0.0
 70
   128
 71
    -5
 72
     4
 73
     6
  0
VERTEX
  5
613D
  8
0
 10
0.0
 20
0.0
 30
0.0
 70
   128
 71
    -3
 72
    -4
 73
     5
  0
VERTEX
  5
613E
  8
0
 10
0.0
 20
0.0
 30
0.0
 70
   128
 71
    -6
 72
     7
 73
     5
  0
VERTEX
  5
613F
  8
0
 10
0.0
 20
0.0
 30
0.0
 70
   128
 71
     8
 72
    -7
 73
     6
  0
VERTEX
  5
6140
  8
0
 10
0.0
 20
0.0
 30
0.0
 70
   128
 71
    -8
 72
     9
 73
     7
  0
VERTEX
  5
6141
  8
0
 10
0.0
 20
0.0
 30
0.0
 70
   128
 71
   -10
 72
    -9
 73
     8
  0
VERTEX
  5
6142
  8
0
 10
0.0
 20
0.0
 30
0.0
 70
   128
 71
   -11
 72
    10
 73
    12
  0
VERTEX
  5
6143
  8
0
 10
0.0
 20
0.0
 30
0.0
 70
   128
 71
    -9
 72
   -10
 73
    11
  0
VERTEX
  5
6144
  8
0
 10
0.0
 20
0.0
 30
0.0
 70
   128
 71
   -12
 72
    13
 73
    11
  0
VERTEX
  5
6145
  8
0
 10
0.0
 20
0.0
 30
0.0
 70
   128
 71
   -14
 72
   -13
 73
    12
  0
VERTEX
  5
6146
  8
0
 10
0.0
 20
0.0
 30
0.0
 70
   128
 71
   -15
 72
    14
 73
    16
  0
VERTEX
  5
6147
  8
0
 10
0.0
 20
0.0
 30
0.0
 70
   128
 71
   -13
 72
   -14
 73
    15
  0
VERTEX
  5
6148
  8
0
 10
0.0
 20
0.0
 30
0.0
 70
   128
 71
   -16
 72
    17
 73
    15
  0
VERTEX
  5
6149
  8
0
 10
0.0
 20
0.0
 30
0.0
 70
   128
 71
    18
 72
   -17
 73
    16
  0
VERTEX
  5
614A
  8
0
 10
0.0
 20
0.0
 30
0.0
 70
   128
 71
   -18
 72
    19
 73
    17
  0
VERTEX
  5
614B
  8
0
 10
0.0
 20
0.0
 30
0.0
 70
   128
 71
   -20
 72
   -19
 73
    18
  0
VERTEX
  5
614C
  8
0
 10
0.0
 20
0.0
 30
0.0
 70
   128
 71
   -21
 72
    20
 73
    22
  0
VERTEX
  5
614D
  8
0
 10
0.0
 20
0.0
 30
0.0
 70
   128
 71
   -19
 72
   -20
 73
    21
  0
VERTEX
  5
614E
  8
0
 10
0.0
 20
0.0
 30
0.0
 70
   128
 71
   -22
 72
    23
 73
    21
  0
VERTEX
  5
614F
  8
0
 10
0.0
 20
0.0
 30
0.0
 70
   128
 71
   -24
 72
   -23
 73
    22
  0
VERTEX
  5
6150
  8
0
 10
0.0
 20
0.0
 30
0.0
 70
   128
 71
   -25
 72
    24
 73
    26
  0
VERTEX
  5
6151
  8
0
 10
0.0
 20
0.0
 30
0.0
 70
   128
 71
   -23
 72
   -24
 73
    25
  0
VERTEX
  5
6152
  8
0
 10
0.0
 20
0.0
 30
0.0
 70
   128
 71
   -26
 72
    27
 73
    25
  0
VERTEX
  5
6153
  8
0
 10
0.0
 20
0.0
 30
0.0
 70
   128
 71
    28
 72
   -27
 73
    26
  0
VERTEX
  5
6154
  8
0
 10
0.0
 20
0.0
 30
0.0
 70
   128
 71
   -28
 72
    29
 73
    27
  0
VERTEX
  5
6155
  8
0
 10
0.0
 20
0.0
 30
0.0
 70
   128
 71
   -30
 72
   -29
 73
    28
  0
VERTEX
  5
6156
  8
0
 10
0.0
 20
0.0
 30
0.0
 70
   128
 71
   -31
 72
    30
 73
    32
  0
VERTEX
  5
6157
  8
0
 10
0.0
 20
0.0
 30
0.0
 70
   128
 71
   -29
 72
   -30
 73
    31
  0
VERTEX
  5
6158
  8
0
 10
0.0
 20
0.0
 30
0.0
 70
   128
 71
   -32
 72
    33
 73
    31
  0
VERTEX
  5
6159
  8
0
 10
0.0
 20
0.0
 30
0.0
 70
   128
 71
   -34
 72
   -33
 73
    32
  0
VERTEX
  5
615A
  8
0
 10
0.0
 20
0.0
 30
0.0
 70
   128
 71
   -35
 72
    34
 73
    36
  0
VERTEX
  5
615B
  8
0
 10
0.0
 20
0.0
 30
0.0
 70
   128
 71
   -33
 72
   -34
 73
    35
  0
VERTEX
  5
615C
  8
0
 10
0.0
 20
0.0
 30
0.0
 70
   128
 71
   -36
 72
    37
 73
    35
  0
VERTEX
  5
615D
  8
0
 10
0.0
 20
0.0
 30
0.0
 70
   128
 71
    38
 72
   -37
 73
    36
  0
VERTEX
  5
615E
  8
0
 10
0.0
 20
0.0
 30
0.0
 70
   128
 71
   -38
 72
    39
 73
    37
  0
VERTEX
  5
615F
  8
0
 10
0.0
 20
0.0
 30
0.0
 70
   128
 71
   -40
 72
   -39
 73
    38
  0
VERTEX
  5
6160
  8
0
 10
0.0
 20
0.0
 30
0.0
 70
   128
 71
   -41
 72
    40
 73
    42
  0
VERTEX
  5
6161
  8
0
 10
0.0
 20
0.0
 30
0.0
 70
   128
 71
   -39
 72
   -40
 73
    41
  0
VERTEX
  5
6162
  8
0
 10
0.0
 20
0.0
 30
0.0
 70
   128
 71
   -42
 72
    43
 73
    41
  0
VERTEX
  5
6163
  8
0
 10
0.0
 20
0.0
 30
0.0
 70
   128
 71
   -44
 72
   -43
 73
    42
  0
VERTEX
  5
6164
  8
0
 10
0.0
 20
0.0
 30
0.0
 70
   128
 71
   -45
 72
    44
 73
    46
  0
VERTEX
  5
6165
  8
0
 10
0.0
 20
0.0
 30
0.0
 70
   128
 71
   -43
 72
   -44
 73
    45
  0
VERTEX
  5
6166
  8
0
 10
0.0
 20
0.0
 30
0.0
 70
   128
 71
   -46
 72
    47
 73
    45
  0
VERTEX
  5
6167
  8
0
 10
0.0
 20
0.0
 30
0.0
 70
   128
 71
    48
 72
   -47
 73
    46
  0
VERTEX
  5
6168
  8
0
 10
0.0
 20
0.0
 30
0.0
 70
   128
 71
   -48
 72
    49
 73
    47
  0
VERTEX
  5
6169
  8
0
 10
0.0
 20
0.0
 30
0.0
 70
   128
 71
   -50
 72
   -49
 73
    48
  0
VERTEX
  5
616A
  8
0
 10
0.0
 20
0.0
 30
0.0
 70
   128
 71
   -51
 72
    50
 73
    52
  0
VERTEX
  5
616B
  8
0
 10
0.0
 20
0.0
 30
0.0
 70
   128
 71
   -49
 72
   -50
 73
    51
  0
VERTEX
  5
616C
  8
0
 10
0.0
 20
0.0
 30
0.0
 70
   128
 71
   -52
 72
    53
 73
    51
  0
VERTEX
  5
616D
  8
0
 10
0.0
 20
0.0
 30
0.0
 70
   128
 71
   -54
 72
   -53
 73
    52
  0
VERTEX
  5
616E
  8
0
 10
0.0
 20
0.0
 30
0.0
 70
   128
 71
   -55
 72
    54
 73
    56
  0
VERTEX
  5
616F
  8
0
 10
0.0
 20
0.0
 30
0.0
 70
   128
 71
   -53
 72
   -54
 73
    55
  0
VERTEX
  5
6170
  8
0
 10
0.0
 20
0.0
 30
0.0
 70
   128
 71
   -56
 72
    57
 73
    55
  0
VERTEX
  5
6171
  8
0
 10
0.0
 20
0.0
 30
0.0
 70
   128
 71
    58
 72
   -57
 73
    56
  0
VERTEX
  5
6172
  8
0
 10
0.0
 20
0.0
 30
0.0
 70
   128
 71
   -58
 72
    59
 73
    57
  0
VERTEX
  5
6173
  8
0
 10
0.0
 20
0.0
 30
0.0
 70
   128
 71
   -60
 72
   -59
 73
    58
  0
VERTEX
  5
6174
  8
0
 10
0.0
 20
0.0
 30
0.0
 70
   128
 71
   -61
 72
    60
 73
    62
  0
VERTEX
  5
6175
  8
0
 10
0.0
 20
0.0
 30
0.0
 70
   128
 71
   -59
 72
   -60
 73
    61
  0
VERTEX
  5
6176
  8
0
 10
0.0
 20
0.0
 30
0.0
 70
   128
 71
   -62
 72
    63
 73
    61
  0
VERTEX
  5
6177
  8
0
 10
0.0
 20
0.0
 30
0.0
 70
   128
 71
   -64
 72
   -63
 73
    62
  0
VERTEX
  5
6178
  8
0
 10
0.0
 20
0.0
 30
0.0
 70
   128
 71
   -65
 72
    64
 73
    66
  0
VERTEX
  5
6179
  8
0
 10
0.0
 20
0.0
 30
0.0
 70
   128
 71
   -63
 72
   -64
 73
    65
  0
VERTEX
  5
617A
  8
0
 10
0.0
 20
0.0
 30
0.0
 70
   128
 71
   -66
 72
    67
 73
    65
  0
VERTEX
  5
617B
  8
0
 10
0.0
 20
0.0
 30
0.0
 70
   128
 71
    68
 72
   -67
 73
    66
  0
VERTEX
  5
617C
  8
0
 10
0.0
 20
0.0
 30
0.0
 70
   128
 71
   -68
 72
    69
 73
    67
  0
VERTEX
  5
617D
  8
0
 10
0.0
 20
0.0
 30
0.0
 70
   128
 71
   -70
 72
   -69
 73
    68
  0
VERTEX
  5
617E
  8
0
 10
0.0
 20
0.0
 30
0.0
 70
   128
 71
   -71
 72
    70
 73
    72
  0
VERTEX
  5
617F
  8
0
 10
0.0
 20
0.0
 30
0.0
 70
   128
 71
   -69
 72
   -70
 73
    71
  0
VERTEX
  5
6180
  8
0
 10
0.0
 20
0.0
 30
0.0
 70
   128
 71
   -72
 72
    73
 73
    71
  0
VERTEX
  5
6181
  8
0
 10
0.0
 20
0.0
 30
0.0
 70
   128
 71
   -74
 72
   -73
 73
    72
  0
VERTEX
  5
6182
  8
0
 10
0.0
 20
0.0
 30
0.0
 70
   128
 71
   -75
 72
    74
 73
    76
  0
VERTEX
  5
6183
  8
0
 10
0.0
 20
0.0
 30
0.0
 70
   128
 71
   -73
 72
   -74
 73
    75
  0
VERTEX
  5
6184
  8
0
 10
0.0
 20
0.0
 30
0.0
 70
   128
 71
   -76
 72
    77
 73
    75
  0
VERTEX
  5
6185
  8
0
 10
0.0
 20
0.0
 30
0.0
 70
   128
 71
    78
 72
   -77
 73
    76
  0
VERTEX
  5
6186
  8
0
 10
0.0
 20
0.0
 30
0.0
 70
   128
 71
   -78
 72
    79
 73
    77
  0
VERTEX
  5
6187
  8
0
 10
0.0
 20
0.0
 30
0.0
 70
   128
 71
   -80
 72
   -79
 73
    78
  0
VERTEX
  5
6188
  8
0
 10
0.0
 20
0.0
 30
0.0
 70
   128
 71
   -81
 72
    80
 73
    82
  0
VERTEX
  5
6189
  8
0
 10
0.0
 20
0.0
 30
0.0
 70
   128
 71
   -79
 72
   -80
 73
    81
  0
SEQEND
  5
618A
  8
0
  0
POLYLINE
  5
618B
  8
0
 66
     1
 10
0.0
 20
0.0
 30
0.0
 70
    64
 71
    40
 72
    38
  0
VERTEX
  5
618C
  8
0
 10
11829.897584655069
 20
-12258.102224303821
 30
206.09028974374141
 70
   192
  0
VERTEX
  5
618D
  8
0
 10
11827.608785956359
 20
-12257.92147985774
 30
205.57165818459191
 70
   192
  0
VERTEX
  5
618E
  8
0
 10
11825.30443278139
 20
-12258.102224303821
 30
205.12720951216289
 70
   192
  0
VERTEX
  5
618F
  8
0
 10
11823.04126595305
 20
-12258.640007113951
 30
204.76788752780959
 70
   192
  0
VERTEX
  5
6190
  8
0
 10
11820.87501214968
 20
-12259.52158629053
 30
204.50253993130971
 70
   192
  0
VERTEX
  5
6191
  8
0
 10
11818.859011729301
 20
-12260.72525442846
 30
204.33770046112539
 70
   192
  0
VERTEX
  5
6192
  8
0
 10
11817.04290531297
 20
-12262.22137322342
 30
204.2774280120851
 70
   192
  0
VERTEX
  5
6193
  8
0
 10
11815.471411467979
 20
-12263.973103265351
 30
204.32320669191509
 70
   192
  0
VERTEX
  5
6194
  8
0
 10
11814.18322558828
 20
-12265.937311146979
 30
204.47390927758951
 70
   192
  0
VERTEX
  5
6195
  8
0
 10
11813.21006708548
 20
-12268.065631551401
 30
204.72582497129321
 70
   192
  0
VERTEX
  5
6196
  8
0
 10
11812.575898351641
 20
-12270.305658166781
 30
205.07275077258919
 70
   192
  0
VERTEX
  5
6197
  8
0
 10
11812.296334725679
 20
-12272.602234103621
 30
205.50614421686811
 70
   192
  0
VERTEX
  5
6198
  8
0
 10
11812.37825999187
 20
-12274.89881004046
 30
206.015333719181
 70
   192
  0
VERTEX
  5
6199
  8
0
 10
11812.819656878281
 20
-12277.13883665584
 30
206.58778134407839
 70
   192
  0
VERTEX
  5
619A
  8
0
 10
11813.60965672866
 20
-12279.26715706026
 30
207.20939153119011
 70
   192
  0
VERTEX
  5
619B
  8
0
 10
11814.728807124809
 20
-12281.231364941879
 30
207.86485817470421
 70
   192
  0
VERTEX
  5
619C
  8
0
 10
11816.14955086975
 20
-12282.98309498382
 30
208.53804151048749
 70
   192
  0
VERTEX
  5
619D
  8
0
 10
11817.8369045373
 20
-12284.479213778781
 30
209.212365530646
 70
   192
  0
VERTEX
  5
619E
  8
0
 10
11819.749319880149
 20
-12285.682881916709
 30
209.87122613985059
 70
   192
  0
VERTEX
  5
619F
  8
0
 10
11821.839706885619
 20
-12286.5644610933
 30
210.4984000032689
 70
   192
  0
VERTEX
  5
61A0
  8
0
 10
11824.05659328804
 20
-12287.10224390342
 30
211.07844401891421
 70
   192
  0
VERTEX
  5
61A1
  8
0
 10
11826.345391986761
 20
-12287.282988349511
 30
211.59707557806331
 70
   192
  0
VERTEX
  5
61A2
  8
0
 10
11828.649745161731
 20
-12287.10224390342
 30
212.0415242504927
 70
   192
  0
VERTEX
  5
61A3
  8
0
 10
11830.912911990061
 20
-12286.5644610933
 30
212.40084623484509
 70
   192
  0
VERTEX
  5
61A4
  8
0
 10
11833.07916579343
 20
-12285.682881916709
 30
212.66619383134551
 70
   192
  0
VERTEX
  5
61A5
  8
0
 10
11835.09516621382
 20
-12284.479213778781
 30
212.83103330152949
 70
   192
  0
VERTEX
  5
61A6
  8
0
 10
11836.91127263015
 20
-12282.98309498382
 30
212.89130575057041
 70
   192
  0
VERTEX
  5
61A7
  8
0
 10
11838.482766475139
 20
-12281.231364941879
 30
212.84552707073971
 70
   192
  0
VERTEX
  5
61A8
  8
0
 10
11839.770952354829
 20
-12279.26715706026
 30
212.6948244850656
 70
   192
  0
VERTEX
  5
61A9
  8
0
 10
11840.744110857629
 20
-12277.13883665584
 30
212.44290879136119
 70
   192
  0
VERTEX
  5
61AA
  8
0
 10
11841.37827959147
 20
-12274.89881004046
 30
212.09598299006521
 70
   192
  0
VERTEX
  5
61AB
  8
0
 10
11841.657843217439
 20
-12272.602234103621
 30
211.66258954578669
 70
   192
  0
VERTEX
  5
61AC
  8
0
 10
11841.575917951241
 20
-12270.305658166781
 30
211.1534000434734
 70
   192
  0
VERTEX
  5
61AD
  8
0
 10
11841.134521064831
 20
-12268.065631551401
 30
210.58095241857691
 70
   192
  0
VERTEX
  5
61AE
  8
0
 10
11840.34452121446
 20
-12265.937311146979
 30
209.95934223146429
 70
   192
  0
VERTEX
  5
61AF
  8
0
 10
11839.2253708183
 20
-12263.973103265351
 30
209.30387558795061
 70
   192
  0
VERTEX
  5
61B0
  8
0
 10
11837.804627073359
 20
-12262.22137322342
 30
208.63069225216731
 70
   192
  0
VERTEX
  5
61B1
  8
0
 10
11836.11727340582
 20
-12260.72525442846
 30
207.9563682320088
 70
   192
  0
VERTEX
  5
61B2
  8
0
 10
11834.20485806296
 20
-12259.52158629053
 30
207.2975076228042
 70
   192
  0
VERTEX
  5
61B3
  8
0
 10
11832.114471057501
 20
-12258.640007113951
 30
206.67033375938581
 70
   192
  0
VERTEX
  5
61B4
  8
0
 10
0.0
 20
0.0
 30
0.0
 70
   128
 71
    -1
 72
     3
 73
     2
  0
VERTEX
  5
61B5
  8
0
 10
0.0
 20
0.0
 30
0.0
 70
   128
 71
    -1
 72
     4
 73
    -3
  0
VERTEX
  5
61B6
  8
0
 10
0.0
 20
0.0
 30
0.0
 70
   128
 71
    -1
 72
     5
 73
    -4
  0
VERTEX
  5
61B7
  8
0
 10
0.0
 20
0.0
 30
0.0
 70
   128
 71
    -1
 72
     6
 73
    -5
  0
VERTEX
  5
61B8
  8
0
 10
0.0
 20
0.0
 30
0.0
 70
   128
 71
    -1
 72
     7
 73
    -6
  0
VERTEX
  5
61B9
  8
0
 10
0.0
 20
0.0
 30
0.0
 70
   128
 71
    -1
 72
     8
 73
    -7
  0
VERTEX
  5
61BA
  8
0
 10
0.0
 20
0.0
 30
0.0
 70
   128
 71
    -1
 72
     9
 73
    -8
  0
VERTEX
  5
61BB
  8
0
 10
0.0
 20
0.0
 30
0.0
 70
   128
 71
    -1
 72
    10
 73
    -9
  0
VERTEX
  5
61BC
  8
0
 10
0.0
 20
0.0
 30
0.0
 70
   128
 71
    -1
 72
    11
 73
   -10
  0
VERTEX
  5
61BD
  8
0
 10
0.0
 20
0.0
 30
0.0
 70
   128
 71
    -1
 72
    12
 73
   -11
  0
VERTEX
  5
61BE
  8
0
 10
0.0
 20
0.0
 30
0.0
 70
   128
 71
    -1
 72
    13
 73
   -12
  0
VERTEX
  5
61BF
  8
0
 10
0.0
 20
0.0
 30
0.0
 70
   128
 71
    -1
 72
    14
 73
   -13
  0
VERTEX
  5
61C0
  8
0
 10
0.0
 20
0.0
 30
0.0
 70
   128
 71
    -1
 72
    15
 73
   -14
  0
VERTEX
  5
61C1
  8
0
 10
0.0
 20
0.0
 30
0.0
 70
   128
 71
    -1
 72
    16
 73
   -15
  0
VERTEX
  5
61C2
  8
0
 10
0.0
 20
0.0
 30
0.0
 70
   128
 71
    -1
 72
    17
 73
   -16
  0
VERTEX
  5
61C3
  8
0
 10
0.0
 20
0.0
 30
0.0
 70
   128
 71
    -1
 72
    18
 73
   -17
  0
VERTEX
  5
61C4
  8
0
 10
0.0
 20
0.0
 30
0.0
 70
   128
 71
    -1
 72
    19
 73
   -18
  0
VERTEX
  5
61C5
  8
0
 10
0.0
 20
0.0
 30
0.0
 70
   128
 71
    -1
 72
    20
 73
   -19
  0
VERTEX
  5
61C6
  8
0
 10
0.0
 20
0.0
 30
0.0
 70
   128
 71
    -1
 72
    21
 73
   -20
  0
VERTEX
  5
61C7
  8
0
 10
0.0
 20
0.0
 30
0.0
 70
   128
 71
    -1
 72
    22
 73
   -21
  0
VERTEX
  5
61C8
  8
0
 10
0.0
 20
0.0
 30
0.0
 70
   128
 71
    -1
 72
    23
 73
   -22
  0
VERTEX
  5
61C9
  8
0
 10
0.0
 20
0.0
 30
0.0
 70
   128
 71
    -1
 72
    24
 73
   -23
  0
VERTEX
  5
61CA
  8
0
 10
0.0
 20
0.0
 30
0.0
 70
   128
 71
    -1
 72
    25
 73
   -24
  0
VERTEX
  5
61CB
  8
0
 10
0.0
 20
0.0
 30
0.0
 70
   128
 71
    -1
 72
    26
 73
   -25
  0
VERTEX
  5
61CC
  8
0
 10
0.0
 20
0.0
 30
0.0
 70
   128
 71
    -1
 72
    27
 73
   -26
  0
VERTEX
  5
61CD
  8
0
 10
0.0
 20
0.0
 30
0.0
 70
   128
 71
    -1
 72
    28
 73
   -27
  0
VERTEX
  5
61CE
  8
0
 10
0.0
 20
0.0
 30
0.0
 70
   128
 71
    -1
 72
    29
 73
   -28
  0
VERTEX
  5
61CF
  8
0
 10
0.0
 20
0.0
 30
0.0
 70
   128
 71
    -1
 72
    30
 73
   -29
  0
VERTEX
  5
61D0
  8
0
 10
0.0
 20
0.0
 30
0.0
 70
   128
 71
    -1
 72
    31
 73
   -30
  0
VERTEX
  5
61D1
  8
0
 10
0.0
 20
0.0
 30
0.0
 70
   128
 71
    -1
 72
    32
 73
   -31
  0
VERTEX
  5
61D2
  8
0
 10
0.0
 20
0.0
 30
0.0
 70
   128
 71
    -1
 72
    33
 73
   -32
  0
VERTEX
  5
61D3
  8
0
 10
0.0
 20
0.0
 30
0.0
 70
   128
 71
    -1
 72
    34
 73
   -33
  0
VERTEX
  5
61D4
  8
0
 10
0.0
 20
0.0
 30
0.0
 70
   128
 71
    -1
 72
    35
 73
   -34
  0
VERTEX
  5
61D5
  8
0
 10
0.0
 20
0.0
 30
0.0
 70
   128
 71
    -1
 72
    36
 73
   -35
  0
VERTEX
  5
61D6
  8
0
 10
0.0
 20
0.0
 30
0.0
 70
   128
 71
    -1
 72
    37
 73
   -36
  0
VERTEX
  5
61D7
  8
0
 10
0.0
 20
0.0
 30
0.0
 70
   128
 71
    -1
 72
    38
 73
   -37
  0
VERTEX
  5
61D8
  8
0
 10
0.0
 20
0.0
 30
0.0
 70
   128
 71
    -1
 72
    39
 73
   -38
  0
VERTEX
  5
61D9
  8
0
 10
0.0
 20
0.0
 30
0.0
 70
   128
 71
     1
 72
    40
 73
   -39
  0
SEQEND
  5
61DA
  8
0
  0
POLYLINE
  5
61DB
  8
0
 66
     1
 10
0.0
 20
0.0
 30
0.0
 70
    64
 71
    40
 72
    38
  0
VERTEX
  5
61DC
  8
0
 10
11824.602384725271
 20
-12257.38490960285
 30
208.47543870291909
 70
   192
  0
VERTEX
  5
61DD
  8
0
 10
11826.906737900241
 20
-12257.204165156771
 30
208.91988737534811
 70
   192
  0
VERTEX
  5
61DE
  8
0
 10
11829.195536598951
 20
-12257.38490960285
 30
209.43851893449789
 70
   192
  0
VERTEX
  5
61DF
  8
0
 10
11831.412423001369
 20
-12257.922692412971
 30
210.0185629501421
 70
   192
  0
VERTEX
  5
61E0
  8
0
 10
11833.502810006839
 20
-12258.804271589561
 30
210.6457368135604
 70
   192
  0
VERTEX
  5
61E1
  8
0
 10
11835.41522534969
 20
-12260.007939727489
 30
211.304597422765
 70
   192
  0
VERTEX
  5
61E2
  8
0
 10
11837.102579017241
 20
-12261.504058522451
 30
211.97892144292379
 70
   192
  0
VERTEX
  5
61E3
  8
0
 10
11838.523322762179
 20
-12263.255788564389
 30
212.65210477870721
 70
   192
  0
VERTEX
  5
61E4
  8
0
 10
11839.64247315833
 20
-12265.219996446011
 30
213.30757142222049
 70
   192
  0
VERTEX
  5
61E5
  8
0
 10
11840.43247300871
 20
-12267.34831685043
 30
213.92918160933311
 70
   192
  0
VERTEX
  5
61E6
  8
0
 10
11840.87386989512
 20
-12269.58834346581
 30
214.50162923423039
 70
   192
  0
VERTEX
  5
61E7
  8
0
 10
11840.955795161321
 20
-12271.88491940265
 30
215.01081873654331
 70
   192
  0
VERTEX
  5
61E8
  8
0
 10
11840.67623153535
 20
-12274.18149533949
 30
215.44421218082189
 70
   192
  0
VERTEX
  5
61E9
  8
0
 10
11840.042062801511
 20
-12276.42152195487
 30
215.79113798211819
 70
   192
  0
VERTEX
  5
61EA
  8
0
 10
11839.068904298711
 20
-12278.549842359291
 30
216.04305367582219
 70
   192
  0
VERTEX
  5
61EB
  8
0
 10
11837.78071841901
 20
-12280.51405024091
 30
216.19375626149591
 70
   192
  0
VERTEX
  5
61EC
  8
0
 10
11836.20922457403
 20
-12282.265780282851
 30
216.23953494132661
 70
   192
  0
VERTEX
  5
61ED
  8
0
 10
11834.393118157701
 20
-12283.76189907781
 30
216.179262492286
 70
   192
  0
VERTEX
  5
61EE
  8
0
 10
11832.377117737309
 20
-12284.965567215741
 30
216.01442302210171
 70
   192
  0
VERTEX
  5
61EF
  8
0
 10
11830.21086393394
 20
-12285.84714639232
 30
215.74907542560101
 70
   192
  0
VERTEX
  5
61F0
  8
0
 10
11827.947697105599
 20
-12286.38492920245
 30
215.3897534412489
 70
   192
  0
VERTEX
  5
61F1
  8
0
 10
11825.64334393064
 20
-12286.565673648531
 30
214.9453047688192
 70
   192
  0
VERTEX
  5
61F2
  8
0
 10
11823.354545231919
 20
-12286.38492920245
 30
214.42667320967041
 70
   192
  0
VERTEX
  5
61F3
  8
0
 10
11821.137658829501
 20
-12285.847146392331
 30
213.84662919402521
 70
   192
  0
VERTEX
  5
61F4
  8
0
 10
11819.047271824031
 20
-12284.965567215741
 30
213.21945533060719
 70
   192
  0
VERTEX
  5
61F5
  8
0
 10
11817.13485648118
 20
-12283.76189907781
 30
212.56059472140299
 70
   192
  0
VERTEX
  5
61F6
  8
0
 10
11815.447502813629
 20
-12282.265780282851
 30
211.88627070124369
 70
   192
  0
VERTEX
  5
61F7
  8
0
 10
11814.026759068691
 20
-12280.51405024091
 30
211.21308736546081
 70
   192
  0
VERTEX
  5
61F8
  8
0
 10
11812.90760867254
 20
-12278.549842359291
 30
210.5576207219471
 70
   192
  0
VERTEX
  5
61F9
  8
0
 10
11812.11760882216
 20
-12276.42152195487
 30
209.9360105348353
 70
   192
  0
VERTEX
  5
61FA
  8
0
 10
11811.67621193575
 20
-12274.18149533949
 30
209.3635629099376
 70
   192
  0
VERTEX
  5
61FB
  8
0
 10
11811.59428666955
 20
-12271.88491940265
 30
208.85437340762431
 70
   192
  0
VERTEX
  5
61FC
  8
0
 10
11811.87385029552
 20
-12269.58834346581
 30
208.4209799633461
 70
   192
  0
VERTEX
  5
61FD
  8
0
 10
11812.508019029359
 20
-12267.34831685043
 30
208.07405416204941
 70
   192
  0
VERTEX
  5
61FE
  8
0
 10
11813.48117753216
 20
-12265.219996446011
 30
207.8221384683458
 70
   192
  0
VERTEX
  5
61FF
  8
0
 10
11814.76936341186
 20
-12263.255788564389
 30
207.67143588267169
 70
   192
  0
VERTEX
  5
6200
  8
0
 10
11816.34085725685
 20
-12261.504058522451
 30
207.6256572028413
 70
   192
  0
VERTEX
  5
6201
  8
0
 10
11818.156963673169
 20
-12260.007939727489
 30
207.68592965188159
 70
   192
  0
VERTEX
  5
6202
  8
0
 10
11820.172964093559
 20
-12258.804271589561
 30
207.85076912206591
 70
   192
  0
VERTEX
  5
6203
  8
0
 10
11822.33921789693
 20
-12257.922692412971
 30
208.11611671856591
 70
   192
  0
VERTEX
  5
6204
  8
0
 10
0.0
 20
0.0
 30
0.0
 70
   128
 71
    -1
 72
     3
 73
     2
  0
VERTEX
  5
6205
  8
0
 10
0.0
 20
0.0
 30
0.0
 70
   128
 71
    -1
 72
     4
 73
    -3
  0
VERTEX
  5
6206
  8
0
 10
0.0
 20
0.0
 30
0.0
 70
   128
 71
    -1
 72
     5
 73
    -4
  0
VERTEX
  5
6207
  8
0
 10
0.0
 20
0.0
 30
0.0
 70
   128
 71
    -1
 72
     6
 73
    -5
  0
VERTEX
  5
6208
  8
0
 10
0.0
 20
0.0
 30
0.0
 70
   128
 71
    -1
 72
     7
 73
    -6
  0
VERTEX
  5
6209
  8
0
 10
0.0
 20
0.0
 30
0.0
 70
   128
 71
    -1
 72
     8
 73
    -7
  0
VERTEX
  5
620A
  8
0
 10
0.0
 20
0.0
 30
0.0
 70
   128
 71
    -1
 72
     9
 73
    -8
  0
VERTEX
  5
620B
  8
0
 10
0.0
 20
0.0
 30
0.0
 70
   128
 71
    -1
 72
    10
 73
    -9
  0
VERTEX
  5
620C
  8
0
 10
0.0
 20
0.0
 30
0.0
 70
   128
 71
    -1
 72
    11
 73
   -10
  0
VERTEX
  5
620D
  8
0
 10
0.0
 20
0.0
 30
0.0
 70
   128
 71
    -1
 72
    12
 73
   -11
  0
VERTEX
  5
620E
  8
0
 10
0.0
 20
0.0
 30
0.0
 70
   128
 71
    -1
 72
    13
 73
   -12
  0
VERTEX
  5
620F
  8
0
 10
0.0
 20
0.0
 30
0.0
 70
   128
 71
    -1
 72
    14
 73
   -13
  0
VERTEX
  5
6210
  8
0
 10
0.0
 20
0.0
 30
0.0
 70
   128
 71
    -1
 72
    15
 73
   -14
  0
VERTEX
  5
6211
  8
0
 10
0.0
 20
0.0
 30
0.0
 70
   128
 71
    -1
 72
    16
 73
   -15
  0
VERTEX
  5
6212
  8
0
 10
0.0
 20
0.0
 30
0.0
 70
   128
 71
    -1
 72
    17
 73
   -16
  0
VERTEX
  5
6213
  8
0
 10
0.0
 20
0.0
 30
0.0
 70
   128
 71
    -1
 72
    18
 73
   -17
  0
VERTEX
  5
6214
  8
0
 10
0.0
 20
0.0
 30
0.0
 70
   128
 71
    -1
 72
    19
 73
   -18
  0
VERTEX
  5
6215
  8
0
 10
0.0
 20
0.0
 30
0.0
 70
   128
 71
    -1
 72
    20
 73
   -19
  0
VERTEX
  5
6216
  8
0
 10
0.0
 20
0.0
 30
0.0
 70
   128
 71
    -1
 72
    21
 73
   -20
  0
VERTEX
  5
6217
  8
0
 10
0.0
 20
0.0
 30
0.0
 70
   128
 71
    -1
 72
    22
 73
   -21
  0
VERTEX
  5
6218
  8
0
 10
0.0
 20
0.0
 30
0.0
 70
   128
 71
    -1
 72
    23
 73
   -22
  0
VERTEX
  5
6219
  8
0
 10
0.0
 20
0.0
 30
0.0
 70
   128
 71
    -1
 72
    24
 73
   -23
  0
VERTEX
  5
621A
  8
0
 10
0.0
 20
0.0
 30
0.0
 70
   128
 71
    -1
 72
    25
 73
   -24
  0
VERTEX
  5
621B
  8
0
 10
0.0
 20
0.0
 30
0.0
 70
   128
 71
    -1
 72
    26
 73
   -25
  0
VERTEX
  5
621C
  8
0
 10
0.0
 20
0.0
 30
0.0
 70
   128
 71
    -1
 72
    27
 73
   -26
  0
VERTEX
  5
621D
  8
0
 10
0.0
 20
0.0
 30
0.0
 70
   128
 71
    -1
 72
    28
 73
   -27
  0
VERTEX
  5
621E
  8
0
 10
0.0
 20
0.0
 30
0.0
 70
   128
 71
    -1
 72
    29
 73
   -28
  0
VERTEX
  5
621F
  8
0
 10
0.0
 20
0.0
 30
0.0
 70
   128
 71
    -1
 72
    30
 73
   -29
  0
VERTEX
  5
6220
  8
0
 10
0.0
 20
0.0
 30
0.0
 70
   128
 71
    -1
 72
    31
 73
   -30
  0
VERTEX
  5
6221
  8
0
 10
0.0
 20
0.0
 30
0.0
 70
   128
 71
    -1
 72
    32
 73
   -31
  0
VERTEX
  5
6222
  8
0
 10
0.0
 20
0.0
 30
0.0
 70
   128
 71
    -1
 72
    33
 73
   -32
  0
VERTEX
  5
6223
  8
0
 10
0.0
 20
0.0
 30
0.0
 70
   128
 71
    -1
 72
    34
 73
   -33
  0
VERTEX
  5
6224
  8
0
 10
0.0
 20
0.0
 30
0.0
 70
   128
 71
    -1
 72
    35
 73
   -34
  0
VERTEX
  5
6225
  8
0
 10
0.0
 20
0.0
 30
0.0
 70
   128
 71
    -1
 72
    36
 73
   -35
  0
VERTEX
  5
6226
  8
0
 10
0.0
 20
0.0
 30
0.0
 70
   128
 71
    -1
 72
    37
 73
   -36
  0
VERTEX
  5
6227
  8
0
 10
0.0
 20
0.0
 30
0.0
 70
   128
 71
    -1
 72
    38
 73
   -37
  0
VERTEX
  5
6228
  8
0
 10
0.0
 20
0.0
 30
0.0
 70
   128
 71
    -1
 72
    39
 73
   -38
  0
VERTEX
  5
6229
  8
0
 10
0.0
 20
0.0
 30
0.0
 70
   128
 71
     1
 72
    40
 73
   -39
  0
SEQEND
  5
622A
  8
0
  0
ENDBLK
  5
691F
  8
0
  0
BLOCK
  8
0
  2
*X25
 70
     1
 10
0.0
 20
0.0
 30
0.0
  3
*X25
  1

  0
POLYLINE
  5
622E
  8
0
 66
     1
 10
0.0
 20
0.0
 30
0.0
 70
    64
 71
    82
 72
    80
  0
VERTEX
  5
622F
  8
0
 10
11828.146664847531
 20
-12249.510993227341
 30
208.79097364597811
 70
   192
  0
VERTEX
  5
6230
  8
0
 10
11828.84111756763
 20
-12250.22054742511
 30
205.47896836547159
 70
   192
  0
VERTEX
  5
6231
  8
0
 10
11826.552318868909
 20
-12250.03980297903
 30
204.96033680632161
 70
   192
  0
VERTEX
  5
6232
  8
0
 10
11825.85786614881
 20
-12249.33024878126
 30
208.2723420868285
 70
   192
  0
VERTEX
  5
6233
  8
0
 10
11824.335432466491
 20
-12249.5020201689
 30
204.38029279067709
 70
   192
  0
VERTEX
  5
6234
  8
0
 10
11823.640979746389
 20
-12248.792465971141
 30
207.6922980711841
 70
   192
  0
VERTEX
  5
6235
  8
0
 10
11822.245045461021
 20
-12248.620440992319
 30
203.75311892725881
 70
   192
  0
VERTEX
  5
6236
  8
0
 10
11821.550592740919
 20
-12247.910886794551
 30
207.06512420776579
 70
   192
  0
VERTEX
  5
6237
  8
0
 10
11820.33263011817
 20
-12247.416772854391
 30
203.09425831805439
 70
   192
  0
VERTEX
  5
6238
  8
0
 10
11819.63817739807
 20
-12246.70721865662
 30
206.4062635985614
 70
   192
  0
VERTEX
  5
6239
  8
0
 10
11818.64527645063
 20
-12245.92065405943
 30
202.41993429789579
 70
   192
  0
VERTEX
  5
623A
  8
0
 10
11817.95082373052
 20
-12245.211099861661
 30
205.73193957840289
 70
   192
  0
VERTEX
  5
623B
  8
0
 10
11817.22453270569
 20
-12244.168924017489
 30
201.7467509621126
 70
   192
  0
VERTEX
  5
623C
  8
0
 10
11816.53007998558
 20
-12243.45936981972
 30
205.05875624261961
 70
   192
  0
VERTEX
  5
623D
  8
0
 10
11816.10538230953
 20
-12242.20471613587
 30
201.09128431859861
 70
   192
  0
VERTEX
  5
623E
  8
0
 10
11815.41092958942
 20
-12241.495161938101
 30
204.40328959910559
 70
   192
  0
VERTEX
  5
623F
  8
0
 10
11815.315382459161
 20
-12240.07639573145
 30
200.46967413148701
 70
   192
  0
VERTEX
  5
6240
  8
0
 10
11814.620929739051
 20
-12239.36684153368
 30
203.78167941199391
 70
   192
  0
VERTEX
  5
6241
  8
0
 10
11814.873985572751
 20
-12237.83636911607
 30
199.89722650658959
 70
   192
  0
VERTEX
  5
6242
  8
0
 10
11814.17953285264
 20
-12237.1268149183
 30
203.20923178709651
 70
   192
  0
VERTEX
  5
6243
  8
0
 10
11814.79206030655
 20
-12235.53979317923
 30
199.38803700427661
 70
   192
  0
VERTEX
  5
6244
  8
0
 10
11814.09760758644
 20
-12234.83023898146
 30
202.70004228478331
 70
   192
  0
VERTEX
  5
6245
  8
0
 10
11815.071623932519
 20
-12233.243217242391
 30
198.95464355999809
 70
   192
  0
VERTEX
  5
6246
  8
0
 10
11814.377171212411
 20
-12232.53366304462
 30
202.26664884050481
 70
   192
  0
VERTEX
  5
6247
  8
0
 10
11815.70579266636
 20
-12231.003190627011
 30
198.60771775870199
 70
   192
  0
VERTEX
  5
6248
  8
0
 10
11815.01133994625
 20
-12230.29363642924
 30
201.9197230392088
 70
   192
  0
VERTEX
  5
6249
  8
0
 10
11816.67895116916
 20
-12228.874870222589
 30
198.35580206499739
 70
   192
  0
VERTEX
  5
624A
  8
0
 10
11815.98449844905
 20
-12228.165316024821
 30
201.667807345504
 70
   192
  0
VERTEX
  5
624B
  8
0
 10
11817.96713704885
 20
-12226.91066234097
 30
198.20509947932399
 70
   192
  0
VERTEX
  5
624C
  8
0
 10
11817.272684328749
 20
-12226.201108143199
 30
201.5171047598306
 70
   192
  0
VERTEX
  5
624D
  8
0
 10
11819.53863089384
 20
-12225.158932299029
 30
198.15932079949329
 70
   192
  0
VERTEX
  5
624E
  8
0
 10
11818.84417817374
 20
-12224.449378101261
 30
201.4713260799999
 70
   192
  0
VERTEX
  5
624F
  8
0
 10
11821.35473731017
 20
-12223.66281350407
 30
198.2195932485343
 70
   192
  0
VERTEX
  5
6250
  8
0
 10
11820.66028459006
 20
-12222.9532593063
 30
201.53159852904099
 70
   192
  0
VERTEX
  5
6251
  8
0
 10
11823.37073773056
 20
-12222.45914536614
 30
198.38443271871779
 70
   192
  0
VERTEX
  5
6252
  8
0
 10
11822.67628501045
 20
-12221.749591168371
 30
201.69643799922449
 70
   192
  0
VERTEX
  5
6253
  8
0
 10
11825.536991533931
 20
-12221.57756618956
 30
198.64978031521861
 70
   192
  0
VERTEX
  5
6254
  8
0
 10
11824.84253881382
 20
-12220.868011991781
 30
201.9617855957251
 70
   192
  0
VERTEX
  5
6255
  8
0
 10
11827.800158362261
 20
-12221.03978337943
 30
199.00910229957131
 70
   192
  0
VERTEX
  5
6256
  8
0
 10
11827.10570564216
 20
-12220.33022918166
 30
202.32110758007809
 70
   192
  0
VERTEX
  5
6257
  8
0
 10
11830.104511537231
 20
-12220.859038933349
 30
199.45355097200039
 70
   192
  0
VERTEX
  5
6258
  8
0
 10
11829.410058598371
 20
-12220.149484735581
 30
202.76555620663791
 70
   192
  0
VERTEX
  5
6259
  8
0
 10
11832.39331023595
 20
-12221.03978337943
 30
199.97218253115
 70
   192
  0
VERTEX
  5
625A
  8
0
 10
11831.698857515839
 20
-12220.33022918166
 30
203.28418781165689
 70
   192
  0
VERTEX
  5
625B
  8
0
 10
11834.61019663837
 20
-12221.57756618955
 30
200.55222654679449
 70
   192
  0
VERTEX
  5
625C
  8
0
 10
11833.91574391826
 20
-12220.868011991781
 30
203.86423182730141
 70
   192
  0
VERTEX
  5
625D
  8
0
 10
11836.70058364384
 20
-12222.45914536614
 30
201.17940041021271
 70
   192
  0
VERTEX
  5
625E
  8
0
 10
11836.00613092373
 20
-12221.749591168371
 30
204.49140569071969
 70
   192
  0
VERTEX
  5
625F
  8
0
 10
11838.612998986689
 20
-12223.66281350407
 30
201.8382610194171
 70
   192
  0
VERTEX
  5
6260
  8
0
 10
11837.918546266579
 20
-12222.9532593063
 30
205.15026629992411
 70
   192
  0
VERTEX
  5
6261
  8
0
 10
11840.30035265424
 20
-12225.158932299029
 30
202.51258503957561
 70
   192
  0
VERTEX
  5
6262
  8
0
 10
11839.605899934129
 20
-12224.449378101261
 30
205.82459032008271
 70
   192
  0
VERTEX
  5
6263
  8
0
 10
11841.72109639918
 20
-12226.91066234097
 30
203.18576837535889
 70
   192
  0
VERTEX
  5
6264
  8
0
 10
11841.02664367907
 20
-12226.201108143199
 30
206.49777365586601
 70
   192
  0
VERTEX
  5
6265
  8
0
 10
11842.840246795329
 20
-12228.874870222589
 30
203.84123501887299
 70
   192
  0
VERTEX
  5
6266
  8
0
 10
11842.14579407523
 20
-12228.165316024821
 30
207.15324029937989
 70
   192
  0
VERTEX
  5
6267
  8
0
 10
11843.630246645709
 20
-12231.003190627011
 30
204.46284520598459
 70
   192
  0
VERTEX
  5
6268
  8
0
 10
11842.935793925601
 20
-12230.29363642924
 30
207.77485048649149
 70
   192
  0
VERTEX
  5
6269
  8
0
 10
11844.071643532119
 20
-12233.243217242391
 30
205.03529283088201
 70
   192
  0
VERTEX
  5
626A
  8
0
 10
11843.377190812011
 20
-12232.53366304462
 30
208.34729811138891
 70
   192
  0
VERTEX
  5
626B
  8
0
 10
11844.153568798311
 20
-12235.53979317923
 30
205.54448233319519
 70
   192
  0
VERTEX
  5
626C
  8
0
 10
11843.459116078209
 20
-12234.83023898146
 30
208.85648761370189
 70
   192
  0
VERTEX
  5
626D
  8
0
 10
11843.874005172351
 20
-12237.83636911607
 30
205.97787577747371
 70
   192
  0
VERTEX
  5
626E
  8
0
 10
11843.17955245224
 20
-12237.1268149183
 30
209.28988105798041
 70
   192
  0
VERTEX
  5
626F
  8
0
 10
11843.23983643851
 20
-12240.07639573145
 30
206.32480157876981
 70
   192
  0
VERTEX
  5
6270
  8
0
 10
11842.5453837184
 20
-12239.36684153368
 30
209.63680685927639
 70
   192
  0
VERTEX
  5
6271
  8
0
 10
11842.26667793571
 20
-12242.20471613587
 30
206.5767172724745
 70
   192
  0
VERTEX
  5
6272
  8
0
 10
11841.572225215599
 20
-12241.495161938101
 30
209.88872255298111
 70
   192
  0
VERTEX
  5
6273
  8
0
 10
11840.978492056011
 20
-12244.168924017489
 30
206.72741985814801
 70
   192
  0
VERTEX
  5
6274
  8
0
 10
11840.2840393359
 20
-12243.45936981972
 30
210.03942513865451
 70
   192
  0
VERTEX
  5
6275
  8
0
 10
11839.40699821102
 20
-12245.92065405943
 30
206.77319853797869
 70
   192
  0
VERTEX
  5
6276
  8
0
 10
11838.71254549092
 20
-12245.211099861661
 30
210.08520381848521
 70
   192
  0
VERTEX
  5
6277
  8
0
 10
11837.590891794691
 20
-12247.416772854391
 30
206.71292608893759
 70
   192
  0
VERTEX
  5
6278
  8
0
 10
11836.89643907459
 20
-12246.70721865662
 30
210.02493136944409
 70
   192
  0
VERTEX
  5
6279
  8
0
 10
11835.57489137431
 20
-12248.620440992319
 30
206.5480866187541
 70
   192
  0
VERTEX
  5
627A
  8
0
 10
11834.8804386542
 20
-12247.910886794551
 30
209.86009189926071
 70
   192
  0
VERTEX
  5
627B
  8
0
 10
11833.40863757093
 20
-12249.5020201689
 30
206.28273902225331
 70
   192
  0
VERTEX
  5
627C
  8
0
 10
11832.714184850831
 20
-12248.79246597113
 30
209.59474430275989
 70
   192
  0
VERTEX
  5
627D
  8
0
 10
11831.1454707426
 20
-12250.03980297903
 30
205.92341703790049
 70
   192
  0
VERTEX
  5
627E
  8
0
 10
11830.45101802249
 20
-12249.33024878126
 30
209.2354223184071
 70
   192
  0
VERTEX
  5
627F
  8
0
 10
11828.84111756763
 20
-12250.22054742511
 30
205.47896836547159
 70
   192
  0
VERTEX
  5
6280
  8
0
 10
11828.146664847531
 20
-12249.510993227341
 30
208.79097364597811
 70
   192
  0
VERTEX
  5
6281
  8
0
 10
0.0
 20
0.0
 30
0.0
 70
   128
 71
    -1
 72
     3
 73
     2
  0
VERTEX
  5
6282
  8
0
 10
0.0
 20
0.0
 30
0.0
 70
   128
 71
    -4
 72
    -3
 73
     1
  0
VERTEX
  5
6283
  8
0
 10
0.0
 20
0.0
 30
0.0
 70
   128
 71
    -5
 72
     4
 73
     6
  0
VERTEX
  5
6284
  8
0
 10
0.0
 20
0.0
 30
0.0
 70
   128
 71
    -3
 72
    -4
 73
     5
  0
VERTEX
  5
6285
  8
0
 10
0.0
 20
0.0
 30
0.0
 70
   128
 71
    -6
 72
     7
 73
     5
  0
VERTEX
  5
6286
  8
0
 10
0.0
 20
0.0
 30
0.0
 70
   128
 71
     8
 72
    -7
 73
     6
  0
VERTEX
  5
6287
  8
0
 10
0.0
 20
0.0
 30
0.0
 70
   128
 71
    -8
 72
     9
 73
     7
  0
VERTEX
  5
6288
  8
0
 10
0.0
 20
0.0
 30
0.0
 70
   128
 71
   -10
 72
    -9
 73
     8
  0
VERTEX
  5
6289
  8
0
 10
0.0
 20
0.0
 30
0.0
 70
   128
 71
   -11
 72
    10
 73
    12
  0
VERTEX
  5
628A
  8
0
 10
0.0
 20
0.0
 30
0.0
 70
   128
 71
    -9
 72
   -10
 73
    11
  0
VERTEX
  5
628B
  8
0
 10
0.0
 20
0.0
 30
0.0
 70
   128
 71
   -12
 72
    13
 73
    11
  0
VERTEX
  5
628C
  8
0
 10
0.0
 20
0.0
 30
0.0
 70
   128
 71
   -14
 72
   -13
 73
    12
  0
VERTEX
  5
628D
  8
0
 10
0.0
 20
0.0
 30
0.0
 70
   128
 71
   -15
 72
    14
 73
    16
  0
VERTEX
  5
628E
  8
0
 10
0.0
 20
0.0
 30
0.0
 70
   128
 71
   -13
 72
   -14
 73
    15
  0
VERTEX
  5
628F
  8
0
 10
0.0
 20
0.0
 30
0.0
 70
   128
 71
   -16
 72
    17
 73
    15
  0
VERTEX
  5
6290
  8
0
 10
0.0
 20
0.0
 30
0.0
 70
   128
 71
    18
 72
   -17
 73
    16
  0
VERTEX
  5
6291
  8
0
 10
0.0
 20
0.0
 30
0.0
 70
   128
 71
   -18
 72
    19
 73
    17
  0
VERTEX
  5
6292
  8
0
 10
0.0
 20
0.0
 30
0.0
 70
   128
 71
   -20
 72
   -19
 73
    18
  0
VERTEX
  5
6293
  8
0
 10
0.0
 20
0.0
 30
0.0
 70
   128
 71
   -21
 72
    20
 73
    22
  0
VERTEX
  5
6294
  8
0
 10
0.0
 20
0.0
 30
0.0
 70
   128
 71
   -19
 72
   -20
 73
    21
  0
VERTEX
  5
6295
  8
0
 10
0.0
 20
0.0
 30
0.0
 70
   128
 71
   -22
 72
    23
 73
    21
  0
VERTEX
  5
6296
  8
0
 10
0.0
 20
0.0
 30
0.0
 70
   128
 71
   -24
 72
   -23
 73
    22
  0
VERTEX
  5
6297
  8
0
 10
0.0
 20
0.0
 30
0.0
 70
   128
 71
   -25
 72
    24
 73
    26
  0
VERTEX
  5
6298
  8
0
 10
0.0
 20
0.0
 30
0.0
 70
   128
 71
   -23
 72
   -24
 73
    25
  0
VERTEX
  5
6299
  8
0
 10
0.0
 20
0.0
 30
0.0
 70
   128
 71
   -26
 72
    27
 73
    25
  0
VERTEX
  5
629A
  8
0
 10
0.0
 20
0.0
 30
0.0
 70
   128
 71
    28
 72
   -27
 73
    26
  0
VERTEX
  5
629B
  8
0
 10
0.0
 20
0.0
 30
0.0
 70
   128
 71
   -28
 72
    29
 73
    27
  0
VERTEX
  5
629C
  8
0
 10
0.0
 20
0.0
 30
0.0
 70
   128
 71
   -30
 72
   -29
 73
    28
  0
VERTEX
  5
629D
  8
0
 10
0.0
 20
0.0
 30
0.0
 70
   128
 71
   -31
 72
    30
 73
    32
  0
VERTEX
  5
629E
  8
0
 10
0.0
 20
0.0
 30
0.0
 70
   128
 71
   -29
 72
   -30
 73
    31
  0
VERTEX
  5
629F
  8
0
 10
0.0
 20
0.0
 30
0.0
 70
   128
 71
   -32
 72
    33
 73
    31
  0
VERTEX
  5
62A0
  8
0
 10
0.0
 20
0.0
 30
0.0
 70
   128
 71
   -34
 72
   -33
 73
    32
  0
VERTEX
  5
62A1
  8
0
 10
0.0
 20
0.0
 30
0.0
 70
   128
 71
   -35
 72
    34
 73
    36
  0
VERTEX
  5
62A2
  8
0
 10
0.0
 20
0.0
 30
0.0
 70
   128
 71
   -33
 72
   -34
 73
    35
  0
VERTEX
  5
62A3
  8
0
 10
0.0
 20
0.0
 30
0.0
 70
   128
 71
   -36
 72
    37
 73
    35
  0
VERTEX
  5
62A4
  8
0
 10
0.0
 20
0.0
 30
0.0
 70
   128
 71
    38
 72
   -37
 73
    36
  0
VERTEX
  5
62A5
  8
0
 10
0.0
 20
0.0
 30
0.0
 70
   128
 71
   -38
 72
    39
 73
    37
  0
VERTEX
  5
62A6
  8
0
 10
0.0
 20
0.0
 30
0.0
 70
   128
 71
   -40
 72
   -39
 73
    38
  0
VERTEX
  5
62A7
  8
0
 10
0.0
 20
0.0
 30
0.0
 70
   128
 71
   -41
 72
    40
 73
    42
  0
VERTEX
  5
62A8
  8
0
 10
0.0
 20
0.0
 30
0.0
 70
   128
 71
   -39
 72
   -40
 73
    41
  0
VERTEX
  5
62A9
  8
0
 10
0.0
 20
0.0
 30
0.0
 70
   128
 71
   -42
 72
    43
 73
    41
  0
VERTEX
  5
62AA
  8
0
 10
0.0
 20
0.0
 30
0.0
 70
   128
 71
   -44
 72
   -43
 73
    42
  0
VERTEX
  5
62AB
  8
0
 10
0.0
 20
0.0
 30
0.0
 70
   128
 71
   -45
 72
    44
 73
    46
  0
VERTEX
  5
62AC
  8
0
 10
0.0
 20
0.0
 30
0.0
 70
   128
 71
   -43
 72
   -44
 73
    45
  0
VERTEX
  5
62AD
  8
0
 10
0.0
 20
0.0
 30
0.0
 70
   128
 71
   -46
 72
    47
 73
    45
  0
VERTEX
  5
62AE
  8
0
 10
0.0
 20
0.0
 30
0.0
 70
   128
 71
    48
 72
   -47
 73
    46
  0
VERTEX
  5
62AF
  8
0
 10
0.0
 20
0.0
 30
0.0
 70
   128
 71
   -48
 72
    49
 73
    47
  0
VERTEX
  5
62B0
  8
0
 10
0.0
 20
0.0
 30
0.0
 70
   128
 71
   -50
 72
   -49
 73
    48
  0
VERTEX
  5
62B1
  8
0
 10
0.0
 20
0.0
 30
0.0
 70
   128
 71
   -51
 72
    50
 73
    52
  0
VERTEX
  5
62B2
  8
0
 10
0.0
 20
0.0
 30
0.0
 70
   128
 71
   -49
 72
   -50
 73
    51
  0
VERTEX
  5
62B3
  8
0
 10
0.0
 20
0.0
 30
0.0
 70
   128
 71
   -52
 72
    53
 73
    51
  0
VERTEX
  5
62B4
  8
0
 10
0.0
 20
0.0
 30
0.0
 70
   128
 71
   -54
 72
   -53
 73
    52
  0
VERTEX
  5
62B5
  8
0
 10
0.0
 20
0.0
 30
0.0
 70
   128
 71
   -55
 72
    54
 73
    56
  0
VERTEX
  5
62B6
  8
0
 10
0.0
 20
0.0
 30
0.0
 70
   128
 71
   -53
 72
   -54
 73
    55
  0
VERTEX
  5
62B7
  8
0
 10
0.0
 20
0.0
 30
0.0
 70
   128
 71
   -56
 72
    57
 73
    55
  0
VERTEX
  5
62B8
  8
0
 10
0.0
 20
0.0
 30
0.0
 70
   128
 71
    58
 72
   -57
 73
    56
  0
VERTEX
  5
62B9
  8
0
 10
0.0
 20
0.0
 30
0.0
 70
   128
 71
   -58
 72
    59
 73
    57
  0
VERTEX
  5
62BA
  8
0
 10
0.0
 20
0.0
 30
0.0
 70
   128
 71
   -60
 72
   -59
 73
    58
  0
VERTEX
  5
62BB
  8
0
 10
0.0
 20
0.0
 30
0.0
 70
   128
 71
   -61
 72
    60
 73
    62
  0
VERTEX
  5
62BC
  8
0
 10
0.0
 20
0.0
 30
0.0
 70
   128
 71
   -59
 72
   -60
 73
    61
  0
VERTEX
  5
62BD
  8
0
 10
0.0
 20
0.0
 30
0.0
 70
   128
 71
   -62
 72
    63
 73
    61
  0
VERTEX
  5
62BE
  8
0
 10
0.0
 20
0.0
 30
0.0
 70
   128
 71
   -64
 72
   -63
 73
    62
  0
VERTEX
  5
62BF
  8
0
 10
0.0
 20
0.0
 30
0.0
 70
   128
 71
   -65
 72
    64
 73
    66
  0
VERTEX
  5
62C0
  8
0
 10
0.0
 20
0.0
 30
0.0
 70
   128
 71
   -63
 72
   -64
 73
    65
  0
VERTEX
  5
62C1
  8
0
 10
0.0
 20
0.0
 30
0.0
 70
   128
 71
   -66
 72
    67
 73
    65
  0
VERTEX
  5
62C2
  8
0
 10
0.0
 20
0.0
 30
0.0
 70
   128
 71
    68
 72
   -67
 73
    66
  0
VERTEX
  5
62C3
  8
0
 10
0.0
 20
0.0
 30
0.0
 70
   128
 71
   -68
 72
    69
 73
    67
  0
VERTEX
  5
62C4
  8
0
 10
0.0
 20
0.0
 30
0.0
 70
   128
 71
   -70
 72
   -69
 73
    68
  0
VERTEX
  5
62C5
  8
0
 10
0.0
 20
0.0
 30
0.0
 70
   128
 71
   -71
 72
    70
 73
    72
  0
VERTEX
  5
62C6
  8
0
 10
0.0
 20
0.0
 30
0.0
 70
   128
 71
   -69
 72
   -70
 73
    71
  0
VERTEX
  5
62C7
  8
0
 10
0.0
 20
0.0
 30
0.0
 70
   128
 71
   -72
 72
    73
 73
    71
  0
VERTEX
  5
62C8
  8
0
 10
0.0
 20
0.0
 30
0.0
 70
   128
 71
   -74
 72
   -73
 73
    72
  0
VERTEX
  5
62C9
  8
0
 10
0.0
 20
0.0
 30
0.0
 70
   128
 71
   -75
 72
    74
 73
    76
  0
VERTEX
  5
62CA
  8
0
 10
0.0
 20
0.0
 30
0.0
 70
   128
 71
   -73
 72
   -74
 73
    75
  0
VERTEX
  5
62CB
  8
0
 10
0.0
 20
0.0
 30
0.0
 70
   128
 71
   -76
 72
    77
 73
    75
  0
VERTEX
  5
62CC
  8
0
 10
0.0
 20
0.0
 30
0.0
 70
   128
 71
    78
 72
   -77
 73
    76
  0
VERTEX
  5
62CD
  8
0
 10
0.0
 20
0.0
 30
0.0
 70
   128
 71
   -78
 72
    79
 73
    77
  0
VERTEX
  5
62CE
  8
0
 10
0.0
 20
0.0
 30
0.0
 70
   128
 71
   -80
 72
   -79
 73
    78
  0
VERTEX
  5
62CF
  8
0
 10
0.0
 20
0.0
 30
0.0
 70
   128
 71
   -81
 72
    80
 73
    82
  0
VERTEX
  5
62D0
  8
0
 10
0.0
 20
0.0
 30
0.0
 70
   128
 71
   -79
 72
   -80
 73
    81
  0
SEQEND
  5
62D1
  8
0
  0
POLYLINE
  5
62D2
  8
0
 66
     1
 10
0.0
 20
0.0
 30
0.0
 70
    64
 71
    40
 72
    38
  0
VERTEX
  5
62D3
  8
0
 10
11832.39331023595
 20
-12221.03978337942
 30
199.97218253114889
 70
   192
  0
VERTEX
  5
62D4
  8
0
 10
11830.104511537231
 20
-12220.85903893334
 30
199.45355097199939
 70
   192
  0
VERTEX
  5
62D5
  8
0
 10
11827.800158362261
 20
-12221.03978337942
 30
199.00910229957009
 70
   192
  0
VERTEX
  5
62D6
  8
0
 10
11825.536991533931
 20
-12221.57756618955
 30
198.6497803152173
 70
   192
  0
VERTEX
  5
62D7
  8
0
 10
11823.37073773056
 20
-12222.45914536614
 30
198.38443271871759
 70
   192
  0
VERTEX
  5
62D8
  8
0
 10
11821.35473731017
 20
-12223.662813504059
 30
198.21959324853259
 70
   192
  0
VERTEX
  5
62D9
  8
0
 10
11819.53863089384
 20
-12225.158932299029
 30
198.15932079949201
 70
   192
  0
VERTEX
  5
62DA
  8
0
 10
11817.96713704885
 20
-12226.91066234097
 30
198.20509947932271
 70
   192
  0
VERTEX
  5
62DB
  8
0
 10
11816.67895116915
 20
-12228.874870222589
 30
198.35580206499679
 70
   192
  0
VERTEX
  5
62DC
  8
0
 10
11815.705792666349
 20
-12231.003190627011
 30
198.6077177587008
 70
   192
  0
VERTEX
  5
62DD
  8
0
 10
11815.07162393251
 20
-12233.243217242391
 30
198.95464355999681
 70
   192
  0
VERTEX
  5
62DE
  8
0
 10
11814.79206030655
 20
-12235.53979317923
 30
199.3880370042757
 70
   192
  0
VERTEX
  5
62DF
  8
0
 10
11814.87398557274
 20
-12237.83636911607
 30
199.89722650658859
 70
   192
  0
VERTEX
  5
62E0
  8
0
 10
11815.315382459161
 20
-12240.07639573145
 30
200.4696741314859
 70
   192
  0
VERTEX
  5
62E1
  8
0
 10
11816.10538230953
 20
-12242.20471613587
 30
201.0912843185981
 70
   192
  0
VERTEX
  5
62E2
  8
0
 10
11817.22453270569
 20
-12244.168924017489
 30
201.7467509621118
 70
   192
  0
VERTEX
  5
62E3
  8
0
 10
11818.645276450619
 20
-12245.92065405942
 30
202.4199342978948
 70
   192
  0
VERTEX
  5
62E4
  8
0
 10
11820.33263011817
 20
-12247.416772854391
 30
203.09425831805359
 70
   192
  0
VERTEX
  5
62E5
  8
0
 10
11822.245045461021
 20
-12248.62044099231
 30
203.75311892725821
 70
   192
  0
VERTEX
  5
62E6
  8
0
 10
11824.335432466491
 20
-12249.5020201689
 30
204.38029279067661
 70
   192
  0
VERTEX
  5
62E7
  8
0
 10
11826.552318868909
 20
-12250.03980297903
 30
204.96033680632101
 70
   192
  0
VERTEX
  5
62E8
  8
0
 10
11828.84111756763
 20
-12250.22054742511
 30
205.47896836547059
 70
   192
  0
VERTEX
  5
62E9
  8
0
 10
11831.1454707426
 20
-12250.03980297903
 30
205.9234170378999
 70
   192
  0
VERTEX
  5
62EA
  8
0
 10
11833.40863757093
 20
-12249.5020201689
 30
206.2827390222524
 70
   192
  0
VERTEX
  5
62EB
  8
0
 10
11835.574891374299
 20
-12248.62044099231
 30
206.54808661875271
 70
   192
  0
VERTEX
  5
62EC
  8
0
 10
11837.590891794691
 20
-12247.416772854391
 30
206.71292608893739
 70
   192
  0
VERTEX
  5
62ED
  8
0
 10
11839.40699821102
 20
-12245.92065405942
 30
206.77319853797769
 70
   192
  0
VERTEX
  5
62EE
  8
0
 10
11840.978492056011
 20
-12244.168924017489
 30
206.7274198581473
 70
   192
  0
VERTEX
  5
62EF
  8
0
 10
11842.26667793571
 20
-12242.20471613587
 30
206.57671727247319
 70
   192
  0
VERTEX
  5
62F0
  8
0
 10
11843.23983643851
 20
-12240.07639573145
 30
206.32480157876881
 70
   192
  0
VERTEX
  5
62F1
  8
0
 10
11843.874005172351
 20
-12237.83636911607
 30
205.97787577747289
 70
   192
  0
VERTEX
  5
62F2
  8
0
 10
11844.153568798311
 20
-12235.53979317923
 30
205.54448233319431
 70
   192
  0
VERTEX
  5
62F3
  8
0
 10
11844.071643532119
 20
-12233.24321724238
 30
205.03529283088099
 70
   192
  0
VERTEX
  5
62F4
  8
0
 10
11843.630246645709
 20
-12231.003190627011
 30
204.46284520598411
 70
   192
  0
VERTEX
  5
62F5
  8
0
 10
11842.840246795329
 20
-12228.87487022258
 30
203.84123501887149
 70
   192
  0
VERTEX
  5
62F6
  8
0
 10
11841.721096399169
 20
-12226.91066234097
 30
203.18576837535821
 70
   192
  0
VERTEX
  5
62F7
  8
0
 10
11840.300352654231
 20
-12225.158932299029
 30
202.5125850395749
 70
   192
  0
VERTEX
  5
62F8
  8
0
 10
11838.612998986689
 20
-12223.662813504059
 30
201.838261019416
 70
   192
  0
VERTEX
  5
62F9
  8
0
 10
11836.700583643829
 20
-12222.45914536614
 30
201.1794004102118
 70
   192
  0
VERTEX
  5
62FA
  8
0
 10
11834.61019663837
 20
-12221.57756618955
 30
200.55222654679309
 70
   192
  0
VERTEX
  5
62FB
  8
0
 10
0.0
 20
0.0
 30
0.0
 70
   128
 71
    -1
 72
     3
 73
     2
  0
VERTEX
  5
62FC
  8
0
 10
0.0
 20
0.0
 30
0.0
 70
   128
 71
    -1
 72
     4
 73
    -3
  0
VERTEX
  5
62FD
  8
0
 10
0.0
 20
0.0
 30
0.0
 70
   128
 71
    -1
 72
     5
 73
    -4
  0
VERTEX
  5
62FE
  8
0
 10
0.0
 20
0.0
 30
0.0
 70
   128
 71
    -1
 72
     6
 73
    -5
  0
VERTEX
  5
62FF
  8
0
 10
0.0
 20
0.0
 30
0.0
 70
   128
 71
    -1
 72
     7
 73
    -6
  0
VERTEX
  5
6300
  8
0
 10
0.0
 20
0.0
 30
0.0
 70
   128
 71
    -1
 72
     8
 73
    -7
  0
VERTEX
  5
6301
  8
0
 10
0.0
 20
0.0
 30
0.0
 70
   128
 71
    -1
 72
     9
 73
    -8
  0
VERTEX
  5
6302
  8
0
 10
0.0
 20
0.0
 30
0.0
 70
   128
 71
    -1
 72
    10
 73
    -9
  0
VERTEX
  5
6303
  8
0
 10
0.0
 20
0.0
 30
0.0
 70
   128
 71
    -1
 72
    11
 73
   -10
  0
VERTEX
  5
6304
  8
0
 10
0.0
 20
0.0
 30
0.0
 70
   128
 71
    -1
 72
    12
 73
   -11
  0
VERTEX
  5
6305
  8
0
 10
0.0
 20
0.0
 30
0.0
 70
   128
 71
    -1
 72
    13
 73
   -12
  0
VERTEX
  5
6306
  8
0
 10
0.0
 20
0.0
 30
0.0
 70
   128
 71
    -1
 72
    14
 73
   -13
  0
VERTEX
  5
6307
  8
0
 10
0.0
 20
0.0
 30
0.0
 70
   128
 71
    -1
 72
    15
 73
   -14
  0
VERTEX
  5
6308
  8
0
 10
0.0
 20
0.0
 30
0.0
 70
   128
 71
    -1
 72
    16
 73
   -15
  0
VERTEX
  5
6309
  8
0
 10
0.0
 20
0.0
 30
0.0
 70
   128
 71
    -1
 72
    17
 73
   -16
  0
VERTEX
  5
630A
  8
0
 10
0.0
 20
0.0
 30
0.0
 70
   128
 71
    -1
 72
    18
 73
   -17
  0
VERTEX
  5
630B
  8
0
 10
0.0
 20
0.0
 30
0.0
 70
   128
 71
    -1
 72
    19
 73
   -18
  0
VERTEX
  5
630C
  8
0
 10
0.0
 20
0.0
 30
0.0
 70
   128
 71
    -1
 72
    20
 73
   -19
  0
VERTEX
  5
630D
  8
0
 10
0.0
 20
0.0
 30
0.0
 70
   128
 71
    -1
 72
    21
 73
   -20
  0
VERTEX
  5
630E
  8
0
 10
0.0
 20
0.0
 30
0.0
 70
   128
 71
    -1
 72
    22
 73
   -21
  0
VERTEX
  5
630F
  8
0
 10
0.0
 20
0.0
 30
0.0
 70
   128
 71
    -1
 72
    23
 73
   -22
  0
VERTEX
  5
6310
  8
0
 10
0.0
 20
0.0
 30
0.0
 70
   128
 71
    -1
 72
    24
 73
   -23
  0
VERTEX
  5
6311
  8
0
 10
0.0
 20
0.0
 30
0.0
 70
   128
 71
    -1
 72
    25
 73
   -24
  0
VERTEX
  5
6312
  8
0
 10
0.0
 20
0.0
 30
0.0
 70
   128
 71
    -1
 72
    26
 73
   -25
  0
VERTEX
  5
6313
  8
0
 10
0.0
 20
0.0
 30
0.0
 70
   128
 71
    -1
 72
    27
 73
   -26
  0
VERTEX
  5
6314
  8
0
 10
0.0
 20
0.0
 30
0.0
 70
   128
 71
    -1
 72
    28
 73
   -27
  0
VERTEX
  5
6315
  8
0
 10
0.0
 20
0.0
 30
0.0
 70
   128
 71
    -1
 72
    29
 73
   -28
  0
VERTEX
  5
6316
  8
0
 10
0.0
 20
0.0
 30
0.0
 70
   128
 71
    -1
 72
    30
 73
   -29
  0
VERTEX
  5
6317
  8
0
 10
0.0
 20
0.0
 30
0.0
 70
   128
 71
    -1
 72
    31
 73
   -30
  0
VERTEX
  5
6318
  8
0
 10
0.0
 20
0.0
 30
0.0
 70
   128
 71
    -1
 72
    32
 73
   -31
  0
VERTEX
  5
6319
  8
0
 10
0.0
 20
0.0
 30
0.0
 70
   128
 71
    -1
 72
    33
 73
   -32
  0
VERTEX
  5
631A
  8
0
 10
0.0
 20
0.0
 30
0.0
 70
   128
 71
    -1
 72
    34
 73
   -33
  0
VERTEX
  5
631B
  8
0
 10
0.0
 20
0.0
 30
0.0
 70
   128
 71
    -1
 72
    35
 73
   -34
  0
VERTEX
  5
631C
  8
0
 10
0.0
 20
0.0
 30
0.0
 70
   128
 71
    -1
 72
    36
 73
   -35
  0
VERTEX
  5
631D
  8
0
 10
0.0
 20
0.0
 30
0.0
 70
   128
 71
    -1
 72
    37
 73
   -36
  0
VERTEX
  5
631E
  8
0
 10
0.0
 20
0.0
 30
0.0
 70
   128
 71
    -1
 72
    38
 73
   -37
  0
VERTEX
  5
631F
  8
0
 10
0.0
 20
0.0
 30
0.0
 70
   128
 71
    -1
 72
    39
 73
   -38
  0
VERTEX
  5
6320
  8
0
 10
0.0
 20
0.0
 30
0.0
 70
   128
 71
     1
 72
    40
 73
   -39
  0
SEQEND
  5
6321
  8
0
  0
POLYLINE
  5
6322
  8
0
 66
     1
 10
0.0
 20
0.0
 30
0.0
 70
    64
 71
    40
 72
    38
  0
VERTEX
  5
6323
  8
0
 10
11827.10570564216
 20
-12220.33022918166
 30
202.32110758007749
 70
   192
  0
VERTEX
  5
6324
  8
0
 10
11829.41005881713
 20
-12220.149484735581
 30
202.7655562525072
 70
   192
  0
VERTEX
  5
6325
  8
0
 10
11831.698857515839
 20
-12220.33022918166
 30
203.28418781165641
 70
   192
  0
VERTEX
  5
6326
  8
0
 10
11833.91574391826
 20
-12220.868011991781
 30
203.86423182730081
 70
   192
  0
VERTEX
  5
6327
  8
0
 10
11836.00613092373
 20
-12221.749591168371
 30
204.49140569072
 70
   192
  0
VERTEX
  5
6328
  8
0
 10
11837.918546266579
 20
-12222.9532593063
 30
205.1502662999238
 70
   192
  0
VERTEX
  5
6329
  8
0
 10
11839.605899934129
 20
-12224.449378101261
 30
205.82459032008259
 70
   192
  0
VERTEX
  5
632A
  8
0
 10
11841.02664367907
 20
-12226.201108143199
 30
206.49777365586601
 70
   192
  0
VERTEX
  5
632B
  8
0
 10
11842.145794075221
 20
-12228.165316024821
 30
207.15324029937929
 70
   192
  0
VERTEX
  5
632C
  8
0
 10
11842.935793925601
 20
-12230.29363642924
 30
207.77485048649191
 70
   192
  0
VERTEX
  5
632D
  8
0
 10
11843.377190812011
 20
-12232.53366304462
 30
208.34729811138919
 70
   192
  0
VERTEX
  5
632E
  8
0
 10
11843.459116078209
 20
-12234.83023898146
 30
208.85648761370209
 70
   192
  0
VERTEX
  5
632F
  8
0
 10
11843.17955245224
 20
-12237.1268149183
 30
209.28988105798069
 70
   192
  0
VERTEX
  5
6330
  8
0
 10
11842.5453837184
 20
-12239.36684153368
 30
209.63680685927619
 70
   192
  0
VERTEX
  5
6331
  8
0
 10
11841.572225215599
 20
-12241.495161938101
 30
209.88872255298071
 70
   192
  0
VERTEX
  5
6332
  8
0
 10
11840.284039335909
 20
-12243.45936981972
 30
210.0394251386551
 70
   192
  0
VERTEX
  5
6333
  8
0
 10
11838.71254549092
 20
-12245.211099861661
 30
210.08520381848541
 70
   192
  0
VERTEX
  5
6334
  8
0
 10
11836.89643907459
 20
-12246.70721865662
 30
210.0249313694448
 70
   192
  0
VERTEX
  5
6335
  8
0
 10
11834.8804386542
 20
-12247.910886794551
 30
209.8600918992602
 70
   192
  0
VERTEX
  5
6336
  8
0
 10
11832.714184850831
 20
-12248.792465971141
 30
209.5947443027602
 70
   192
  0
VERTEX
  5
6337
  8
0
 10
11830.45101802249
 20
-12249.33024878126
 30
209.2354223184073
 70
   192
  0
VERTEX
  5
6338
  8
0
 10
11828.146664847531
 20
-12249.510993227341
 30
208.790973645978
 70
   192
  0
VERTEX
  5
6339
  8
0
 10
11825.85786614881
 20
-12249.33024878126
 30
208.27234208682879
 70
   192
  0
VERTEX
  5
633A
  8
0
 10
11823.640979746389
 20
-12248.792465971141
 30
207.69229807118401
 70
   192
  0
VERTEX
  5
633B
  8
0
 10
11821.550592740919
 20
-12247.910886794551
 30
207.06512420776559
 70
   192
  0
VERTEX
  5
633C
  8
0
 10
11819.63817739807
 20
-12246.70721865662
 30
206.4062635985614
 70
   192
  0
VERTEX
  5
633D
  8
0
 10
11817.95082373052
 20
-12245.211099861661
 30
205.7319395784022
 70
   192
  0
VERTEX
  5
633E
  8
0
 10
11816.53007998558
 20
-12243.45936981972
 30
205.0587562426189
 70
   192
  0
VERTEX
  5
633F
  8
0
 10
11815.41092958943
 20
-12241.495161938101
 30
204.40328959910551
 70
   192
  0
VERTEX
  5
6340
  8
0
 10
11814.620929739051
 20
-12239.36684153368
 30
203.78167941199331
 70
   192
  0
VERTEX
  5
6341
  8
0
 10
11814.17953285264
 20
-12237.1268149183
 30
203.209231787096
 70
   192
  0
VERTEX
  5
6342
  8
0
 10
11814.09760758644
 20
-12234.83023898146
 30
202.70004228478351
 70
   192
  0
VERTEX
  5
6343
  8
0
 10
11814.377171212411
 20
-12232.53366304462
 30
202.26664884050419
 70
   192
  0
VERTEX
  5
6344
  8
0
 10
11815.01133994625
 20
-12230.29363642924
 30
201.91972303920821
 70
   192
  0
VERTEX
  5
6345
  8
0
 10
11815.98449844905
 20
-12228.165316024821
 30
201.66780734550451
 70
   192
  0
VERTEX
  5
6346
  8
0
 10
11817.272684328749
 20
-12226.201108143199
 30
201.51710475983009
 70
   192
  0
VERTEX
  5
6347
  8
0
 10
11818.84417817374
 20
-12224.449378101261
 30
201.47132607999981
 70
   192
  0
VERTEX
  5
6348
  8
0
 10
11820.66028459006
 20
-12222.9532593063
 30
201.53159852904039
 70
   192
  0
VERTEX
  5
6349
  8
0
 10
11822.67628501045
 20
-12221.749591168371
 30
201.696437999225
 70
   192
  0
VERTEX
  5
634A
  8
0
 10
11824.84253881382
 20
-12220.868011991781
 30
201.96178559572459
 70
   192
  0
VERTEX
  5
634B
  8
0
 10
0.0
 20
0.0
 30
0.0
 70
   128
 71
    -1
 72
     3
 73
     2
  0
VERTEX
  5
634C
  8
0
 10
0.0
 20
0.0
 30
0.0
 70
   128
 71
    -1
 72
     4
 73
    -3
  0
VERTEX
  5
634D
  8
0
 10
0.0
 20
0.0
 30
0.0
 70
   128
 71
    -1
 72
     5
 73
    -4
  0
VERTEX
  5
634E
  8
0
 10
0.0
 20
0.0
 30
0.0
 70
   128
 71
    -1
 72
     6
 73
    -5
  0
VERTEX
  5
634F
  8
0
 10
0.0
 20
0.0
 30
0.0
 70
   128
 71
    -1
 72
     7
 73
    -6
  0
VERTEX
  5
6350
  8
0
 10
0.0
 20
0.0
 30
0.0
 70
   128
 71
    -1
 72
     8
 73
    -7
  0
VERTEX
  5
6351
  8
0
 10
0.0
 20
0.0
 30
0.0
 70
   128
 71
    -1
 72
     9
 73
    -8
  0
VERTEX
  5
6352
  8
0
 10
0.0
 20
0.0
 30
0.0
 70
   128
 71
    -1
 72
    10
 73
    -9
  0
VERTEX
  5
6353
  8
0
 10
0.0
 20
0.0
 30
0.0
 70
   128
 71
    -1
 72
    11
 73
   -10
  0
VERTEX
  5
6354
  8
0
 10
0.0
 20
0.0
 30
0.0
 70
   128
 71
    -1
 72
    12
 73
   -11
  0
VERTEX
  5
6355
  8
0
 10
0.0
 20
0.0
 30
0.0
 70
   128
 71
    -1
 72
    13
 73
   -12
  0
VERTEX
  5
6356
  8
0
 10
0.0
 20
0.0
 30
0.0
 70
   128
 71
    -1
 72
    14
 73
   -13
  0
VERTEX
  5
6357
  8
0
 10
0.0
 20
0.0
 30
0.0
 70
   128
 71
    -1
 72
    15
 73
   -14
  0
VERTEX
  5
6358
  8
0
 10
0.0
 20
0.0
 30
0.0
 70
   128
 71
    -1
 72
    16
 73
   -15
  0
VERTEX
  5
6359
  8
0
 10
0.0
 20
0.0
 30
0.0
 70
   128
 71
    -1
 72
    17
 73
   -16
  0
VERTEX
  5
635A
  8
0
 10
0.0
 20
0.0
 30
0.0
 70
   128
 71
    -1
 72
    18
 73
   -17
  0
VERTEX
  5
635B
  8
0
 10
0.0
 20
0.0
 30
0.0
 70
   128
 71
    -1
 72
    19
 73
   -18
  0
VERTEX
  5
635C
  8
0
 10
0.0
 20
0.0
 30
0.0
 70
   128
 71
    -1
 72
    20
 73
   -19
  0
VERTEX
  5
635D
  8
0
 10
0.0
 20
0.0
 30
0.0
 70
   128
 71
    -1
 72
    21
 73
   -20
  0
VERTEX
  5
635E
  8
0
 10
0.0
 20
0.0
 30
0.0
 70
   128
 71
    -1
 72
    22
 73
   -21
  0
VERTEX
  5
635F
  8
0
 10
0.0
 20
0.0
 30
0.0
 70
   128
 71
    -1
 72
    23
 73
   -22
  0
VERTEX
  5
6360
  8
0
 10
0.0
 20
0.0
 30
0.0
 70
   128
 71
    -1
 72
    24
 73
   -23
  0
VERTEX
  5
6361
  8
0
 10
0.0
 20
0.0
 30
0.0
 70
   128
 71
    -1
 72
    25
 73
   -24
  0
VERTEX
  5
6362
  8
0
 10
0.0
 20
0.0
 30
0.0
 70
   128
 71
    -1
 72
    26
 73
   -25
  0
VERTEX
  5
6363
  8
0
 10
0.0
 20
0.0
 30
0.0
 70
   128
 71
    -1
 72
    27
 73
   -26
  0
VERTEX
  5
6364
  8
0
 10
0.0
 20
0.0
 30
0.0
 70
   128
 71
    -1
 72
    28
 73
   -27
  0
VERTEX
  5
6365
  8
0
 10
0.0
 20
0.0
 30
0.0
 70
   128
 71
    -1
 72
    29
 73
   -28
  0
VERTEX
  5
6366
  8
0
 10
0.0
 20
0.0
 30
0.0
 70
   128
 71
    -1
 72
    30
 73
   -29
  0
VERTEX
  5
6367
  8
0
 10
0.0
 20
0.0
 30
0.0
 70
   128
 71
    -1
 72
    31
 73
   -30
  0
VERTEX
  5
6368
  8
0
 10
0.0
 20
0.0
 30
0.0
 70
   128
 71
    -1
 72
    32
 73
   -31
  0
VERTEX
  5
6369
  8
0
 10
0.0
 20
0.0
 30
0.0
 70
   128
 71
    -1
 72
    33
 73
   -32
  0
VERTEX
  5
636A
  8
0
 10
0.0
 20
0.0
 30
0.0
 70
   128
 71
    -1
 72
    34
 73
   -33
  0
VERTEX
  5
636B
  8
0
 10
0.0
 20
0.0
 30
0.0
 70
   128
 71
    -1
 72
    35
 73
   -34
  0
VERTEX
  5
636C
  8
0
 10
0.0
 20
0.0
 30
0.0
 70
   128
 71
    -1
 72
    36
 73
   -35
  0
VERTEX
  5
636D
  8
0
 10
0.0
 20
0.0
 30
0.0
 70
   128
 71
    -1
 72
    37
 73
   -36
  0
VERTEX
  5
636E
  8
0
 10
0.0
 20
0.0
 30
0.0
 70
   128
 71
    -1
 72
    38
 73
   -37
  0
VERTEX
  5
636F
  8
0
 10
0.0
 20
0.0
 30
0.0
 70
   128
 71
    -1
 72
    39
 73
   -38
  0
VERTEX
  5
6370
  8
0
 10
0.0
 20
0.0
 30
0.0
 70
   128
 71
     1
 72
    40
 73
   -39
  0
SEQEND
  5
6371
  8
0
  0
ENDBLK
  5
6922
  8
0
  0
ENDSEC
  0
SECTION
  2
ENTITIES
  0
INSERT
  5
54DC
  8
0
  2
*X24
 10
0.0
 20
0.0
 30
0.0
  0
INSERT
  5
54E0
  8
0
  2
*X25
 10
0.0
 20
0.0
 30
0.0
  0
CIRCLE
  5
5CE4
  8
0
 10
6982.0406204697756
 20
860.43637265118662
 30
0.0
 40
14.5
  0
CIRCLE
  5
5CE5
  8
0
 10
7036.0406204697756
 20
865.43637265118673
 30
0.0
 40
14.5
  0
CIRCLE
  5
5CE6
  8
0
 10
7071.7737538389156
 20
883.12759659164215
 30
0.0
 40
14.5
  0
CIRCLE
  5
5CE7
  8
0
 10
7055.5261920549256
 20
831.68637265118684
 30
0.0
 40
14.5
  0
CIRCLE
  5
5CE8
  8
0
 10
7091.2593254240664
 20
849.37759659164249
 30
0.0
 40
14.5
  0
CIRCLE
  5
5CE9
  8
0
 10
7202.0406204697774
 20
860.43637265117945
 30
0.0
 40
14.5
  0
CIRCLE
  5
5CEA
  8
0
 10
7256.0406204697774
 20
865.43637265117945
 30
0.0
 40
14.5
  0
CIRCLE
  5
5CEB
  8
0
 10
7291.7737538389156
 20
883.12759659163487
 30
0.0
 40
14.5
  0
CIRCLE
  5
5CEC
  8
0
 10
7275.5261920549246
 20
831.68637265117968
 30
0.0
 40
14.5
  0
CIRCLE
  5
5CED
  8
0
 10
7311.2593254240664
 20
849.37759659163521
 30
0.0
 40
14.5
  0
LINE
  5
5CF2
  8
0
 10
7372.0354403574847
 20
924.9363816767692
 30
0.0
 11
7372.0354403574829
 21
771.93638167676909
 31
0.0
  0
CIRCLE
  5
5CF4
  8
0
 10
7147.0354403574838
 20
902.93638167676909
 30
0.0
 40
12.0
  0
LINE
  5
5CF9
  8
0
 10
6922.0354403574838
 20
924.9363816767692
 30
0.0
 11
6922.0354403574829
 21
771.93638167676909
 31
0.0
  0
LINE
  5
5CFA
  8
0
 10
6925.0354403574838
 20
927.93638167676909
 30
0.0
 11
7369.0354403574838
 21
927.93638167676909
 31
0.0
  0
LINE
  5
5D03
  8
0
 10
6925.0354403574829
 20
768.93638167676897
 30
0.0
 11
7369.0354403574829
 21
768.93638167676897
 31
0.0
  0
ARC
  5
5D45
  8
0
 10
7369.0354403574829
 20
771.93638167676909
 30
0.0
 40
3.0
 50
270.0
 51
0.0
  0
ARC
  5
5D46
  8
0
 10
7369.0354403574838
 20
924.9363816767692
 30
0.0
 40
3.0
 50
0.0
 51
89.999999999999957
  0
ARC
  5
5D47
  8
0
 10
6925.0354403574838
 20
924.9363816767692
 30
0.0
 40
3.0
 50
90.0
 51
180.0
  0
ARC
  5
5D48
  8
0
 10
6925.0354403574829
 20
771.93638167676909
 30
0.0
 40
3.0
 50
180.0
 51
270.0
  0
CIRCLE
  5
5D49
  8
0
 10
6934.035440357482
 20
894.93638167676909
 30
0.0
 40
5.0
  0
CIRCLE
  5
5D4B
  8
0
 10
6934.035440357482
 20
803.93638167676909
 30
0.0
 40
5.0
  0
CIRCLE
  5
5D4C
  8
0
 10
7360.0354403574838
 20
894.93638167676909
 30
0.0
 40
5.0
  0
CIRCLE
  5
5D4D
  8
0
 10
7360.0354403574838
 20
803.93638167676909
 30
0.0
 40
5.0
  0
CIRCLE
  5
5DF4
  8
0
 10
6987.5978738480162
 20
1385.182834995481
 30
0.0
 40
14.5
  0
CIRCLE
  5
5DF5
  8
0
 10
7041.5978738480162
 20
1390.182834995481
 30
0.0
 40
14.5
  0
CIRCLE
  5
5DF6
  8
0
 10
7077.3310072171544
 20
1407.874058935937
 30
0.0
 40
14.5
  0
CIRCLE
  5
5DF7
  8
0
 10
7061.0834454331662
 20
1356.432834995481
 30
0.0
 40
14.5
  0
CIRCLE
  5
5DF8
  8
0
 10
7096.8165788023043
 20
1374.124058935937
 30
0.0
 40
14.5
  0
CIRCLE
  5
5DF9
  8
0
 10
7207.5978738480153
 20
1385.182834995474
 30
0.0
 40
14.5
  0
CIRCLE
  5
5DFA
  8
0
 10
7261.5978738480171
 20
1390.182834995474
 30
0.0
 40
14.5
  0
CIRCLE
  5
5DFB
  8
0
 10
7297.3310072171544
 20
1407.874058935929
 30
0.0
 40
14.5
  0
CIRCLE
  5
5DFC
  8
0
 10
7281.0834454331671
 20
1356.432834995474
 30
0.0
 40
14.5
  0
CIRCLE
  5
5DFD
  8
0
 10
7316.8165788023043
 20
1374.124058935929
 30
0.0
 40
14.5
  0
CIRCLE
  5
5E04
  8
0
 10
7152.5926937357244
 20
1427.6828440210629
 30
0.0
 40
12.0
  0
CIRCLE
  5
5E07
  8
0
 10
7152.5926937357244
 20
1241.1828440210629
 30
0.0
 40
12.0
  0
LINE
  5
5E0C
  8
0
 10
6927.5926937357244
 20
1169.6828440210629
 30
0.0
 11
6927.5926937357244
 21
1472.6828440210629
 31
0.0
  0
ARC
  5
5E0D
  8
0
 10
6929.5926937357244
 20
1472.6828440210629
 30
0.0
 40
2.0
 50
90.0
 51
180.0
  0
LINE
  5
5E0E
  8
0
 10
7377.5926937357244
 20
1472.6828440210629
 30
0.0
 11
7377.5926937357244
 21
1454.6828440210629
 31
0.0
  0
LINE
  5
5E1B
  8
0
 10
6929.5926937357244
 20
1474.6828440210629
 30
0.0
 11
7375.5926937357226
 21
1474.6828440210629
 31
0.0
  0
ARC
  5
5E1C
  8
0
 10
7375.5926937357226
 20
1472.6828440210629
 30
0.0
 40
2.0
 50
0.0
 51
90.0
  0
ARC
  5
5E23
  8
0
 10
7375.5926937357226
 20
1169.6828440210629
 30
0.0
 40
2.0
 50
270.0
 51
0.0
  0
LINE
  5
5E24
  8
0
 10
6929.5926937357244
 20
1167.6828440210629
 30
0.0
 11
7375.5926937357226
 21
1167.6828440210629
 31
0.0
  0
LINE
  5
5E25
  8
0
 10
7377.5926937357244
 20
1454.6828440210629
 30
0.0
 11
7377.5926937357244
 21
1169.6828440210629
 31
0.0
  0
ARC
  5
5E26
  8
0
 10
6929.5926937357244
 20
1169.6828440210629
 30
0.0
 40
2.0
 50
180.0
 51
270.0
  0
CIRCLE
  5
5E3A
  8
0
 10
7265.0926937357244
 20
1241.1828440210629
 30
0.0
 40
14.5
  0
CIRCLE
  5
5E3B
  8
0
 10
7040.0926937357244
 20
1241.1828440210629
 30
0.0
 40
14.5
  0
CIRCLE
  5
5E3C
  8
0
 10
7365.5926937357244
 20
1419.6828440210629
 30
0.0
 40
2.0
  0
CIRCLE
  5
5E3D
  8
0
 10
7365.5926937357244
 20
1328.6828440210629
 30
0.0
 40
2.0
  0
CIRCLE
  5
5E3E
  8
0
 10
6939.5926937357217
 20
1419.6828440210629
 30
0.0
 40
2.0
  0
CIRCLE
  5
5E3F
  8
0
 10
6939.5926937357217
 20
1328.6828440210629
 30
0.0
 40
2.0
  0
CIRCLE
  5
5E40
  8
0
 10
7365.5926937357244
 20
1241.1828440210629
 30
0.0
 40
2.0
  0
CIRCLE
  5
5E41
  8
0
 10
6939.5926937357226
 20
1241.1828440210629
 30
0.0
 40
2.0
  0
CIRCLE
  5
5E42
  8
0
 10
7365.5926937357244
 20
1177.6828440210629
 30
0.0
 40
2.0
  0
CIRCLE
  5
5E43
  8
0
 10
6939.5926937357226
 20
1177.6828440210629
 30
0.0
 40
2.0
  0
CIRCLE
  5
5E44
  8
0
 10
7152.5926937357244
 20
1177.6828440210629
 30
0.0
 40
2.0
  0
TEXT
  5
60D7
  8
0
 10
7074.9718196451986
 20
1543.295297377523
 30
0.0
 40
18.20877361685196
  1
1-2mm steel
 41
0.75
  7
ARCH-DIM
  0
TEXT
  5
60DF
  8
0
 10
6975.9089857124354
 20
964.03268694306371
 30
0.0
 40
18.20877361685196
  1
3-5mm acryllic, polycarbonate or lexan
 41
0.75
  7
ARCH-DIM
  0
ENDSEC
  0
EOF
